Personalmente

Para adicionar a uma lista pessoal, você deve
ou

Las Pelotas

Versão
estudio
publicado por
iri
Tom
A-
A+
Deslizar
A -> La
Video
Acordes
Tradução
	 
[Riff]
E F# E F#
e|----------------|---------------|---------------|---------------|

b|----------------|---------------|--------------7|---------------|

g|-4--------6b8---|-6--------4h---|-4---------6b8-|-6--------6b8-6|

D|----------------|--------4h6--6-|---------------|---------------|

A|----------------|---------------|---------------|---------------|

E|----------------|---------------|---------------|---------------|

E F# E F#
e|---------------|---------------|---------------|---------------|---|

B|---------------|---------------|--------------7|---------7-7-7-|-9-|

G|-4--------6b8--|-6---------4h--|-4---------6b8-|-6---6h8----8--|---|

D|---------------|--------4h6--6-|---------------|---------------|---|

A|---------------|---------------|---------------|---------------|---|

E|---------------|---------------|---------------|---------------|---|

[Intro]
[E - F# - E - F#] x2
[Estrofe]
E F#
Deja que ruede
F# E
Como el aire entre las hojas
E F#
Todo es oro, todo es sal
[Estrofe]
E F#
Que llegará el día
F# E
Que no quemen sus recuerdos
E F#
Que se apagará el dolor .
[Refrão]
C#m F#
Personalmente creo
C#m F#
Que todo esto es una locura
C#m F#
Personalmente creo
C#m F#
Que todo esto es una locura.
[Riff]
E F# E F#
e|----------------|---------------|---------------|--------------|---|

b|----------------|---------------|--------------7|--------------|---|

g|-6b8--------6b8-|-6--------4h---|-4---------6b8-|-6------4-----|-4-|

D|----------------|--------4h6--6-|---------------|----------6h4-|---|

A|----------------|---------------|---------------|--------------|---|

E|----------------|---------------|---------------|--------------|---|

[Estrofe]
E F#
Cómo es la vida
F# E
Cuántas veces en el cielo
E F#
Cuántas en la oscuridad
[Estrofe]
E F#
Que sólo es el tiempo
F# E
El que llevará tú vida
E F#
A dónde quieres que estés
[Refrão]
C#m F#
Personalmente creo
C#m F#
Que todo esto es una locura
C#m F#
Personalmente creo
C#m F#
Que todo esto es una locura.
[Solo]
E F# E F#
e|-11h12h11----------------|----|------------------------|--------14-14-14|-16-|

b|---------12-11-----------|----|-11h12h11--11--11-12-14-|14--16h17---16--|----|

g|---------------13--------|----|---------13-------------|----------------|----|

D|-----------------14-13-11|-11-|------------------------|----------------|----|

A|-------------------------|----|------------------------|----------------|----|

E|-------------------------|----|------------------------|----------------|----|

[Estrofe]
E F#
Deja, sigamos remontando vuelo
E F#
Deja, la luz siempre atraviesa el bosque
E F#
Después es solo un recuerdo
E F#
Después solo pasará
[Solo]
[C#m - F#] x4
[Estrofe]
E F#
Deja que ruede
E F#
Llegará el día
E F#
La locura aaah
Em F#
La locura aaah
E F#
La locura aaah
E F#
La locura aaah
E F#
La locura aaah
[Outro]
E F#
La locura aaah
Este site utiliza cookies