A Idade do Céu

Para adicionar a uma lista pessoal, você deve
ou

Paulinho Moska

Versão
estudio
publicado por
iri
Tom
A-
A+
Deslizar
A -> La
Video
Acordes
	 
[Intro]
e|---------------------------------------|

b|-------------12-------------------7----|

g|--------12--------------------7--------|

D|---12---------------------7------------|

A|---------------------------------------|

E|8---------------------3----------------|

e|------------------------------------3/5--3---------3/5-3---------|

b|-------------12-------------------7-3/5--3--3\1\0--3/5-3--3\1p0--|

g|--------12--------------------7-------------4\2\0---------4\2p0--|

D|---12---------------------7--------------------------------------|

A|-----------------------------------------------------------------|

E|8---------------------3------------------------------------------|

[Intro]
Cmaj7(13)/G - A7/9 - G5/6/9 - D5/9
[Estrofe]
C7M(13)/G
Não somos mais
A7(9)
Que uma gota de luz
G5(6/9)
Uma estrela que cai
D5(9)
Uma fagulha tão só

Na idade do céu
[Estrofe]
C7M(13)/G
Não somos o
A7(9)
O que queríamos ser
G5(6/9)
Somos um breve pulsar
D5(9)
Em um silêncio antigo

Com a idade do céu
[Refrão]
C7M(13)/G
Calma
A7(9)/C#
Tudo está em calma
G5(6/9)
Deixe que o beijo dure
D#º F#º
Deixe que o tempo cure
C7M(13)/G
Deixe que a alma
D6(9)/A
Tenha a mesma idade

Que a idade do céu
[Puente]
C7M(13)/G A7(9)/C#


[Estrofe]
C7M(13)/G
Não somos mais
A7(9)
Que um punhado de mar
G5(6/9)
Uma piada de Deus
D5(9)
Um capricho do sol
(frase)
No jardim do céu
[Estrofe]
C7M(13)/G
Não damos pé
A7(9)
Entre tanto tic tac
G5(6/9)
Entre tanto Big Bang
D5(9)
Somos um grão de sal

No mar do céu.
[Refrão]
C7M(13)/G
Calma
A7(9)/C#
Tudo está em calma
G5(6/9)
Deixe que o beijo dure
D#º F#º
Deixe que o tempo cure
C7M(13)/G
Deixe que a alma
D6(9)/A
Tenha a mesma idade

Que a idade do céu
D6(9)/A
A mesma idade

Que a idade do céu
[Puente]
( A7 D9(11)/A G6/A D9(11)/A )

( C9 C9(11+) C5(9) C5(6/9) )

( G5(6/9) D5(9) )

[Refrão]
C7M(13)/G
Calma
A7(9)/C#
Tudo está em calma
D6(9)/A
Deixe que o beijo dure
D#º F#º
Deixe que o tempo cure
C7M(13)/G
Deixe que a alma
D6(9)/A
Tenha a mesma idade

Que a idade do céu

A mesma idade

Que a idade do céu
[Refrão]
Am7 C
Calma
A7(9)/C#
Tudo está em calma
G5(6/9)
Deixe que o beijo dure
D#º F#º
Deixe que o tempo cure
C7M(13)/G
Deixe que a alma
D6(9)/A
Tenha a mesma idade

Que a idade do céu

A mesma idade

Que a idade do céu
[Outro]
[Cmaj7/13/G - A7(9]x4
Este site utiliza cookies