Admiração

Para adicionar a uma lista pessoal, você deve
ou

Paulinho Moska

Versão
estudio
publicado por
iri
Tom
A-
A+
Deslizar
A -> La
Video
Acordes
	 
[Intro]
Am7 Bm7(b5) B° Am7 E7(b9) Bb7(11#)
E|-7--5---------------10--------7-5--------------------------|

B|-5----8-5-------6----9--9-----5---8-5--------6-------------|

G|-5--------7-5---7---10--10----5-------7-5----7--7-----5----|

D|----------------6--9-------------------------6--6-----7--7-|

B|0-------------7-------------0--------------7----------6--6-|

E|----------------------------------------------------6------|

[Intro]
Am7 Bm7(b5) B° Am7 E7(b9) Bb7(11#)
[Estrofe]
Am7 E7(#9) Bm7(b5)
Meus olhos, famintos, não se cansam
E7(b9) (Riff)
De te acariciar
Am7 E7(#9) Bm7(b5)
Procuram sempre um novo ângulo
E7(b9) Am7 A7
Pra te admirar
[Puente]
Dm Dm7M Dm7 Dm6
E sonham mergulhar na sua boca de vulcão
Am Am7M E7(4) E7
Provar todo o calor que há na sua erupção
[Estrofe]
Am7 E7(#9) Bm7(b5)
Escorregar nos rios claros
E7(b9) (Riff)
Das margens dos teus pêlos
Am7 E7(#9) Bm7(b5)
E encontrar o ouro escondido
E7(b9) Am7 A7
Que brilha em seus cabelos
[Puente]
Dm Dm7M Dm7 Dm6
Devorar a fruta que te emprestou o cheiro
Am Am7M E7(4) E7 E
E talvez desfrutar de um amor puro e verdadeiro
[Estrofe]
Ebm7 C7 F7 E Bbm7
Esquecer o espaço, o tempo e o viver
C7 F7 Bbm Bb7 Ebm7
Perder a noção do que é ter a noção do perder
Bbm Gb7 C7 F7 Bbm
Se um dia eu fui alegria ao te conhecer
Bbm Gb7 C7 F7 Bbm
Agora canto porque sinto a dor de não te ter
[Intro]
Am7 Bm7(b5) B° Am7 E7(b9) Bb7(11#)
E|-7--5---------------10--------7-5--------------------------|

B|-5----8-5-------6----9--9-----5---8-5--------6-------------|

G|-5--------7-5---7---10--10----5-------7-5----7--7-----5----|

D|----------------6--9-------------------------6--6-----7--7-|

B|0-------------7-------------0--------------7----------6--6-|

E|----------------------------------------------------6------|

[Estrofe]
Am7 E7(#9) Bm7(b5)
Meus olhos, famintos, não se cansam
E7(b9) (Riff)
De te acariciar
Am7 E7(#9) Bm7(b5)
Procuram sempre um novo ângulo
E7(b9) Am7 A7
Pra te admirar
[Puente]
Dm Dm7M Dm7 Dm6
E sonham mergulhar na sua boca de vulcão
Am Am7M E7(4) E7
Provar todo o calor que há na sua erupção
[Estrofe]
Am7 E7(#9) Bm7(b5)
Escorregar nos rios claros
E7(b9) (Riff)
Das margens dos teus pêlos
Am7 E7(#9) Bm7(b5)
E encontrar o ouro escondido
E7(b9) Am7 A7
Que brilha em seus cabelos
[Puente]
Dm Dmmaj7 Dm7 Dm6
Devorar a fruta que te emprestou o cheiro
Am Amaj7 E7(4) E7 E
E talvez desfrutar de um amor puro e verdadeiro
[Refrão]
Ebm7 C7 F7 E bm7
Esquecer o espaço, o tempo e o viver
C7 F7 Bbm Bb7 Ebm7
Perder a noção do que é ter a noção do perder
Bbm Gb7 C7 F7 Bbm
Se um dia eu fui alegria ao te conhecer
Bbm Gb7 C7 F7 Bbm
Agora canto porque sinto a dor de não te ter
[Intro]
Am7 Bm7(b5) B° Am7 E7(b9) Bb7(11#)
E|-7--5---------------10--------7-5--------------------------|

B|-5----8-5-------6----9--9-----5---8-5--------6-------------|

G|-5--------7-5---7---10--10----5-------7-5----7--7-----5----|

D|----------------6--9-------------------------6--6-----7--7-|

B|0-------------7-------------0--------------7----------6--6-|

E|----------------------------------------------------6------|

Este site utiliza cookies