Red House

Para adicionar a uma lista pessoal, você deve
ou

The Jimi Hendrix Experience

Versão
estudio
publicado por
fabricio
Tom
A-
A+
Deslizar
A -> La
Video
Acordes
Tradução
	 
Bb7: 6x676x

Eb9: x65666

F9: x87888

[Intro]
e|-----11----11----------11----11----11-|-------10----10-----10-----10-----10-|

B|-/10-10----------10----10----10----10-|-10/9--9-----9---9--9------9---9--9--|

G|-/11----11----11----11----11----11----|-11/10----10-----------10---------10-|

D|--------------------------------------|-------------------------------------|

A|--------------------------------------|-------------------------------------|

E|--------------------------------------|-------------------------------------|

e|-----------------------------------------------7--------9-7-----------------|

B|-7-----10B--10B--10B-----10B-10-10B-10-----7-----10-7--------10-7-----------|

G|-8--------------------------------------9B--------------------------9B~~----|

D|-9--------------------------------------------------------------------------|

A|----------------------------------------------------------------------------|

E|-7--------------------------------------------------------------------------|

e|----------------------------------7--------7---------7--7---------7----7----|

B|----- (7)-----------------------7----10~---7-------7----10p7------7h9--7----|

G|-7h9B--7~~~~-----8/9B--7~~---9B-----------------9B------------9-------------|

D|----------------------------------------------------------------------------|

A|----------------------------------------------------------------------------|

E|----------------------------------------------------------------------------|

e|----------------------------------------------------------------------------|

B|--------------------------------------------------------12~--14B------14B---|

G|-9--7/8----------------------------------------11h12/13---------------------|

D|--------9-7-------------------------9~---11/13------------------------------|

A|------------9-8-7-5/6~---------9h11-----------------------------------------|

E|--------------------------7/11----------------------------------------------|

e|-----------14-----14--------------------------------------------------------|

B|-14B--14B~~~~14B~~~~14BR----12h14p12--12~----15BR-15B--15BR---12------------|

G|-----------------------------------(13)-------------------------------------|

D|----------------------------------------------------------------------------|

A|----------------------------------------------------------------------------|

E|----------------------------------------------------------------------------|

e|---------14------------------7------10br7-----9b---7---------7--------------|

B|-12h14B~~~~14RB--12\-------7---10-7------------------7-----7----------------|

G|------------------------/8------------------------------9B------7-----------|

D|-------------------------------------------------------------------10-------|

A|-----------------------------------------------------------------------10---|

E|----------------------------------------------------------------------------|

[Estrofe]
Bb7
There's a Red House over yonder
Eb9 Bb7 Bb7
That's where my baby stays
Eb9
There's a Red House over yonder, baby
Bb7 Bb7
That's where my baby stays
F9 Eb9
Well, I ain't been home to see my baby,
Bb7 Bb7 F9
in ninety nine and one half days.
Bb7
Wait a minute something's wrong here
Eb9
The key won't unlock the door.
Bb7
Wait a minute something's wrong,
Eb9 Bb7 Bb7
Lord, have mercy, this key won't unlock this door,
(something's goin' on here.)
F9
I have a bad bad feeling
Eb9 Bb7
that my baby don't live here no more.
F9
That's all right, I still got my guitar Look out now . . .
[Solo]
e|---7-7-------10-12B--10----10-----------14B---14-12-14-10-12-12PB-----------|

B|-7------/12------------12------------12-------------------------------------|

G|---------------------------------/13----------------------------------------|

D|----------------------------------------------------------------------------|

A|----------------------------------------------------------------------------|

E|----------------------------------------------------------------------------|

e|--10h12p10-----10h12p10-----10h12p10------10-12B--10h12p10\7----------------|

B|-----------12-----------12-----------12----------------------10B------------|

G|----------------------------------------------------------------------------|

D|----------------------------------------------------------------------------|

A|----------------------------------------------------------------------------|

E|----------------------------------------------------------------------------|

e|-7------------------------------------7------9p7------10p7---10p7-----------|

B|---10p7-7h10p7-----------------------7--10p7-----7---------7-----7----------|

G|---------------9-7h9p7---7--------9B----------------------------------------|

D|-----------------------9----------------------------------------------------|

A|----------------------------------------------------------------------------|

E|----------------------------------------------------------------------------|

e|-10B-10--7-9p7-----7------7----------7--------------------------------------|

B|----------------10--10B-----10p7----7--10p7-----7---------------------------|

G|----------------------------------9B---------9B---9p7----9---7--------------|

D|-------------------------------------------------------9---9----------------|

A|----------------------------------------------------------------------------|

E|----------------------------------------------------------------------------|

e|----7------10p7------10B-10--7---------7----10B-10-7-----10B-10-7-----------|

B|---7--10p7------7--------------7---10--7-------------7------------7---------|

G|-9B-------------------------------------------------------------------------|

D|----------------------------------------------------------------------------|

A|----------------------------------------------------------------------------|

E|----------------------------------------------------------------------------|

e|-10B-10-7------/12-14--13/14-14---17B-17-14h17p14---17-14-------------------|

B|----------7---------------------------------------17------17B--17-15h17p15--|

G|----------------------------------------------------------------------------|

D|----------------------------------------------------------------------------|

A|----------------------------------------------------------------------------|

E|----------------------------------------------------------------------------|

e|----------------7------10------------14B-14--14B-14--14B-14--12h14--10B-----|

B|----15~~\-----7----/12----12p10---12----------------------------------------|

G|-16--------/8---------------------------------------------------------------|

D|----------------------------------------------------------------------------|

A|----------------------------------------------------------------------------|

E|----------------------------------------------------------------------------|

e|------7--12/19----------7---------------------------------------------------|

B|----7-----------------7---10p7--------7h9--7--------------------------------|

G|-9B------------7~--9B----------7------8h9---7-------------------------------|

D|---------------------------------9-----------9------------------------------|

A|-----------------------------------9----------9--------8--9-----------------|

E|---------------------------------------------------0---6--7-----------------|

[Refrão]
Bb7 Eb9
Well I might as well uh, go on back down yonder
Bb7 Bb7
way back 'cross yonder hill
Eb9
I might as well go back over yonder
Bb7
way back over yonder 'cross the hill, (That's where I came from.)
F9 Eb9 (hard stop)
'Cause if my baby don't love me no more,
Bb7 Ddim7 Eb9 Edim7 F9, E9 Bb7
I know her sister will!
Este site utiliza cookies