Hey Joe

Para adicionar a uma lista pessoal, você deve
ou

The Jimi Hendrix Experience

Versão
estudio
publicado por
iri
Tom
A-
A+
Deslizar
A -> La
Video
Acordes
Tradução
	 
[Intro]
e|---0----0------------------------0--------------------|

b|---3/5--5\3----------------------0--------------------|

g|-------------4\2--0-0h1-----(1)--1-----6/7----7----6--|

D|--------------------0h2------2----------------5----4--|

A|---------------------------------------4/5----5----4--|

E|--------------------------0----------0------0----0----|

e|-------------------------|

b|-------------------------|

g|-4--4--------7----7------|

D|-2--2-----7h9--7h9--9\---|

A|-2--2--------------------|

E|-0--0--0-----------------|

[Intro]
| E Em7 C#4/E | E
[Estrofe]
C G D A E E
Hey Joe, where you goin’ with that gun in your hand?
C G D A E E
Hey Joe, I said where you goin’ with that gun in your hand,
C G
I’m goin’ down to shoot my old lady,
D A E E
You know I caught her messin’ ‘round with another man, yeah.
C G
I’m goin’ down to shoot my old lady
D A E
You know I caught her messin’ ‘round with another man
E
Huh! And that ain’t too cool.
[Estrofe]
C G D A E
A hey Joe, I heard you shot your woman down,
E
You shot her down now,
C G D A E
A hey Joe, I heard you shot your old lady down,
E
You shot her down in the ground, Yeah”
C G
Yes, I did, I shot her,
D A E E
You know I caught her messin’ ‘round, messin’ ‘round town,
C G
Uh, yes I did, I shot her.
D A E
You know I caught my old Lady messin’ ‘round town,
E
And I gave her the gun, I shot her.
[Solo]
C G D A E

alright, shoot her one more time again baby!

C G D A E

yeah! Dig it.

C G D A E E

oh, alright.

[Tablatura]
e|--------------------------------------------------0---|

b|--------------------------------------------------0---|

g|------------------------------------------------------|

D|-----------------------------------------------9------|

A|-3------------2--3--4--5--------------4--5--6--7------|

E|---0--1--2--3-------------2--3--4--5-----------0------|

e|--0-----------------------------------0---------------|

b|--0---------7--7----------------------0-9p7--9-9-7-9--|

g|------------7--7-----7--7------9--------9p7--9-9-7-9--|

D|-----7h9p7-----7--7--7--7--9---9--9-----9p7--9-9-7-9--|

A|------------------------------------------------------|

E|------------------------------------------------------|

e|------------------------------------------------------|

b|--9--9------------------------------------------------|

g|--9--9--9--9--7h9---9--7--9---------------------------|

D|--9--9--9--9--7h9---9--7--9---------------------------|

A|------------------------------------------------------|

E|-----------------------------12/----------------------|

[Estrofe]
C G
Hey Joe
D A E E
Where you gonna run to now, where you gonna go?
C G
Hey Joe, I said
D A E E
Where you gonna run to now, where you gonna go?
C G
I’m goin’ way down south,
D A E E
Way down to Mexico way.
C G
I’m goin’ way down south,
D A E
Way down where I can be free,
E
Ain’t no one gonna find me.
[Outro]
C G
Ain’t no hangman gonna,
D A E
He ain’t gonna put a rope around me,
E
You better believe it right now,
I gotta go now,
C G
Hey Joe,
D A E
You better run on down
E
Goodbye everybody. Ow!
Este site utiliza cookies