Muchos mitos

To add a personal list must
or

Las Pelotas

Version
studio
published by
iri
Tone
A-
A+
Slide
A -> La
Video
Chords
Translation
	 
[Riff]
E--------------------------------------|

B--------------------------------------|

G-------7----7-----9--9-------7--------|

D-9-9-----9-----9-------9-7-9---9-7----| x7

A-9-9----------------------------------|

E--------------------------------------|

E--------------------------------------|

B--------------------------------------|

G-------7----7-----9--9--7--9--11-9-11-|

D-9-9-----9-----9----------------------|

A-9-9----------------------------------|

E--------------------------------------|

El Riff se mantiene durante toda la canción, menos en el estribillo.
[Verse]
Bm D/G D/F# Bm D/G D/F#
Muchos mitos, exis-ten acá
Bm D/G D/F# Bm D/G D/F#
muchas sombras te seguirán
Bm D/G D/F# Bm D/G D/F#
alguien me llama y no estás
Bm D/G D/F# Bm D/G D/F#
en la tormenta te cubrirás.
[Bridge]
B5 - G5 A5
B5 - G5 A5
B5 - G5 A5
B5 - G5 A5
[Solo]
B5 - G5 A5 x4
[Riff]
E--------------------------------------|

B--------------------------------------|

G-------7----7-----9--9-------7--------|

D-9-9-----9-----9-------9-7-9---9-7----| x3

A-9-9----------------------------------|

E--------------------------------------|

E--------------------------------------|

B--------------------------------------|

G-------7----7-----9--9--7--9--11-9-11-|

D-9-9-----9-----9----------------------|

A-9-9----------------------------------|

E--------------------------------------|

[Verse]
Bm D/G D/F# Bm D/G D/F#
Muchos mitos, exis-ten acá
Bm D/G D/F# Bm D/G D/F#
muchas sombras te seguirán
Bm D/G D/F# Bm D/G D/F#
alguien me llama y no estás
Bm D/G D/F# Bm D/G D/F#
en la tormenta te cubrirás.
[Chorus]
B5 G5 A5 B5 G5 A5
que ocurrirá... ese mismo día
B5 G5 A5 B5 G5 A5
con ese silencio... y piedras en mi ciudad
B5 G5 A5 B5 G5 A5
que ocurrirá... ese mismo día
B5 G5 A5 B5 G5 A5
con ese silencio... y piedras en mi ciudad
B5 G5 A5 B5 G5 A5
Nooooh! en mi ciudad no
B5 G5 A5 B5 G5 A5
Nooooh! en mi ciudad
B5 G5 A5 B5 G5 A5
Ooooooooooooooooooooooooooooooooooh!
B5 G5 A5 B5 G5 A5
Ooooh!
B5