Orugas

+ new playlist

Las Pelotas

Version
studio
published by
iri
Tone
A-
A+
Slide
A -> La
Video
Chords
Translation
	 
[Riff]
F#m E
e|-----------------|

b|-----------------|

g|-----------------|

D|-----------------|x8

A|-4-4-4-4-4-4-4-2-|

E|-2-2-2-2-2-2-2-0-|

e|--------------------|

b|--------------------|

g|--------------------|

D|---4-4----4-2-4-4-2-|x8

A|-4------4-----------|

E|--------------------|

[Verse]
F#m F#m
Salí una tarde a caminar
F#m F#m
a darle aire a mi ansiedad
F#m F#m
quise olvidarme de consumir
F#m F#m
que ni el almuerzo salí a comprar
[Verse]
F#m F#m
Nunca jamás imagine
F#m F#m
lo que esa tarde iba a pasar
F#m F#m
bajo un árbol me recosté
F#m F#m
y vi a esa oruga mirando me decía:
[Chorus]
F#m E F#m E
ah-ah-ah-ah-ah-ah-ah-ah...
F#m E F#m E
ah-ah-ah-ah-ah-ah-ah-ah...
F#m E F#m E
ah-ah-ah-ah-ah-ah-ah-ah...
F#m E F#m E
ah-ah-ah
[Tab]
A
e|----------|---------------|---------|-----------|

b|----------|---------------|---------|-----------|

g|----------|---------------|---------|-----------|

D|----7-----|---------------|---7-----|-----------|

A|------7-3-|---5\3---------|-----7-3-|---5-3-----|

E|-5--------|-5-----5-3-3-5-|-5-------|-5-----5-3-|

[Riff]
e|--------------------|

b|--------------------|

g|--------------------|

D|---4-4----4-2-4-4-2-|x8

A|-4------4-----------|

E|--------------------|

[Verse]
F#m F#m
Hipnotizado y sin hablar
F#m F#m
me mira fijo, que va a pasar?
F#m F#m
detrás de ella venían mas
F#m F#m
muy decididas a almorzar, decía:
[Chorus]
F#m E F#m E
ah-ah-ah-ah-ah-ah-ah-ah...
F#m E F#m E
ah-ah-ah-ah-ah-ah-ah-ah...
F#m E F#m E
ah-ah-ah-ah-ah-ah-ah-ah...
F#m E F#m E
ah-ah-ah-ah-ah-ah-ah-ah...
[Bridge]

Bla bla bla bla bla bla
[Riff]
A
e|----------|---------------|---------|-----------|

b|----------|---------------|---------|-----------|

g|----------|---------------|---------|-----------|

D|----7-----|---------------|---7-----|-----------|

A|------7-3-|---5\3---------|-----7-3-|---5-3-----|

E|-5--------|-5-----5-3-3-5-|-5-------|-5-----5-3-|

[Post-Chorus]
A
Todas verdosas van por detrás
A
me van llevando a su lugar
A
es increíble yo en su mesa
A
soy su comida, su gran manjar
[Chorus]
F#m E F#m E
ah-ah-ah-ah-ah-ah-ah-ah...
F#m E F#m E
ah-ah-ah-ah-ah-ah-ah-ah...
F#m E F#m E
ah-ah-ah-ah-ah-ah-ah-ah...
F#m E
ah-ah-ah-ah-ah-ah-ah-ah...
This site uses cookies