Si supieras

To add a personal list must
or

Las Pelotas

Version
studio
published by
iri
Tone
A-
A+
Slide
A -> La
Video
Chords
Translation
	 
Sobre el "Riff" Las Pelo vamos las Pelo, sigue la misma base.
[Intro]
| Fm| Bbm Cm| x4
[Verse]
Fm Bbm Cm Fm
Si supiera, a donde ir
Bbm Cm Fm
intentaría fugarme solo
Bbm Cm Fm Bbm Cm
para poder seguir
[Verse]
Fm Bbm Cm Fm
llegar hasta la cima de todo
Bbm Cm Fm
sentirse vivo
Bbm Cm Fm
llegar hasta la inmensidad
Bbm Cm
para sentirse vivo .
[Riff]

e|---------------|----------------|--------------------|----------------|-------------|-------------|

B|---------------|----------------|--------------------|----------------|-------------|--------6----|

G|--5--6---------|----------------|--5--6--------------|----------------|--5--6--8----|--6--5-------|

D|-----------8---|--5--6----------|--------8--8--8--8--|----5--6--------|-------------|----------3--|

A|---------------|----------8-----|--------------------|----------8-----|-------------|-------------|

E|---------------|----------------|--------------------|----------------|-------------|-------------|

[Chorus]
Fm Bbm
Me estoy mirando en un espejo
Cm Fm
en un mueble tan viejo
Bbm Cm
como la soledad
Fm Bbm Cm
Fm Bbm Cm
Fm Bbm
Veo mi calle, los ruidos, los autos
Cm Fm
llevándose a gente a trabajar
Bbm Cm
a trabajar
[Riff]
e|---------------|----------------|--------------------|----------------|-------------|-------------|

B|---------------|----------------|--------------------|----------------|-------------|--------6----|

G|--5--6---------|----------------|--5--6--------------|----------------|--5--6--8----|--6--5-------|

D|-----------8---|--5--6----------|--------8--8--8--8--|----5--6--------|-------------|----------3--|

A|---------------|----------8-----|--------------------|----------8-----|-------------|-------------|

E|---------------|----------------|--------------------|----------------|-------------|-------------|

[Solo]
| Fm| Bbm Cm|x8
[Verse]
Fm Bbm Cm Fm
Si supiera, a donde ir
Bbm Cm Fm
intentaría fugarme solo
Bbm Cm Fm Bbm Cm
para poder seguir
[Riff]
e|---------------|----------------|--------------------|----------------|-------------|-------------|

B|---------------|----------------|--------------------|----------------|-------------|--------6----|

G|--5--6---------|----------------|--5--6--------------|----------------|--5--6--8----|--6--5-------|

D|-----------8---|--5--6----------|--------8--8--8--8--|----5--6--------|-------------|----------3--|

A|---------------|----------8-----|--------------------|----------8-----|-------------|-------------|

E|---------------|----------------|--------------------|----------------|-------------|-------------|

This site uses cookies