Ella debe estar tan linda

To add a personal list must
or

Patricio Rey y sus Redonditos de Ricota

Version
studio
published by
rafah
Tone
A-
A+
Slide
A -> La
Video
Chords
Translation
	 
[Riff]

e|-----------------------------|

B|-----------------------------|

G|-----------------------------|

D|-----------------------------|x4

A|---4-5---4-5---4-5-7-5-4-5-4-|

E|-0-----0-----0---------------|

[Verse]
A7
Conduje toda la noche reventando los cambios

con mis ojos de durax lastimados.
RIFF x4
¡Por Dios! ¡la ruta está trabada y fría!
RIFF x4
y cae la lluvia en estocadas finas.
A7
¡Ella debe estar tan linda! descubriendo mi secreto

con sus ojos oscuros delatando.
RIFF x4
Quiero morder el tallo de su rosa
RIFF x4
aunque me clave sus uñas espinas.
[Tab]
E|----------------------------------|

B|----------------------------------|

G|----------------------------4---7-|

D|-----6------6-(7-6)------6----6---|

A|-7-4----7-4----------7-4----------|

E|----------------------------------|

[Chorus]

¡Ella está tan linda! ¡Ella es tan linda! No puede durar.
[Solo]
Sobre Riff

A|---4-5---4-5---4-5-7-5-4-5-4-| x4

E|-0-----0-----0---------------|

[Verse]
A7
Conduje toda la noche reventando los cambios

con mis ojos de durax lastimados.
RIFF x4
Y ahora estoy en líos por mi furia
RIFF x4
sin un centavo encima y cae la lluvia.
A7
La cara sobre la almohada (encadenada de plata)

está tendiendo la trampa para nuestro amor.
RIFF x4
Y estoy a punto de tirar la esponja
[Chorus]

¡Ella está tan linda! ¡Ella es tan linda! No puede durar.
[Solo]
Sobre Riff

A|---4-5---4-5---4-5-7-5-4-5-4-| x4

E|-0-----0-----0---------------|

[Verse]
A7
Conduje toda la noche reventando los cambios

con mis ojos de durax lastimados.
RIFF x4
¡Por Dios! ¡la ruta está trabada y fría!
RIFF x4
y cae la lluvia en estocadas finas.
A7
¡Ella debe estar tan linda! descubriendo mi secreto

con sus ojos oscuros delatando.
RIFF x4
Quiero morder el tallo de su rosa
RIFF x4
aunque me clave sus uñas espinas.
[Chorus]

¡Ella está tan linda! ¡Ella es tan linda! No puede durar.
[Riff]
A|---4-5---4-5---4-5-7-5-4-5-4-| x4

E|-0-----0-----0---------------|