Música para Pastillas

To add a personal list must
or

Patricio Rey y sus Redonditos de Ricota

Version
studio
published by
iri
Tone
A-
A+
Slide
A -> La
Video
Chords
Translation
	 
[Riff]
e|--------|

b|--------|

g|--------|

D|----2-4-|

A|--2-----|

E|--------|

e|---------------------------------|----------0-----------|

b|---------------------------------|----------0-----------|

g|----------------(5)-4-2----------|-5-5-4-5--------------|

D|-5-4-2--(5)-4-2----------5-4-2-0-|-5-5-4-5---------5-4--|

A|---------------------------------|-3-3-2-3----2----5-4--|

E|---------------------------------|------------0----3-2--|

e|---------------------------------|-0-2-3-0--0-2-3-0--0-2-3-0--0-2-3-0--0-2-3-0-|

b|---------------------------------|---------------------------------------------|

g|----------------(5)-4-2----------|---------------------------------------------|

D|-5-4-2--(5)-4-2----------5-4-2-0-|---------------------------------------------|x2

A|---------------------------------|---------------------------------------------|

E|---------------------------------|---------------------------------------------|

Riff 2
e|------------|-10(12)-------------|

b|------------|--------12-10---7-8-|

g|--5-5-4-(5)-|--------------------|

D|--5-5-4-(5)-|--------------------|x3

A|--3-3-2-(3)-|--------------------|

E|------------|--------------------|

e|---------------------------------|----------0-----------|

b|---------------------------------|----------0-----------|

g|----------------(5)-4-2----------|-5-5-4-5--------------|

D|-5-4-2--(5)-4-2----------5-4-2-0-|-5-5-4-5---------5-4--|x2

A|---------------------------------|-3-3-2-3----2----5-4--|

E|---------------------------------|------------0----3-2--|

[Verse]
Riff 1
Flacas gimnastas de América
Riff 1
Secas austeras Soviéticas
[Chorus]
Riff 2
Muchachitas fatales,
Riff 2
en blancos soquetes chinos,
Riff 2
son todas joyas, Patricias de amor.
[Riff]
e|---------------------------------|----------0-----------|

b|---------------------------------|----------0-----------|

g|----------------(5)-4-2----------|-5-5-4-5--------------|

D|-5-4-2--(5)-4-2----------5-4-2-0-|-5-5-4-5---------5-4--|

A|---------------------------------|-3-3-2-3----2----5-4--|

E|---------------------------------|------------0----3-2--|

[Verse]
Riff 1
La más hermosa niña del mundo
Riff 1
pude dar solo lo que tiene para dar.
[Chorus]
Riff 2
Música para pastillas, ¡rápido!
Riff 2
y mucha cuchillería.
Riff 2
Para mi amor, esto está muy Shanghai.
[Solo]
e|---------------10----------(10~)|----12----------------------------------|-------------|

b|-----------10b----10br--10------|-15b---15-12-----------------15~--------|-------(15~)-|

g|-9~~--9-12----------------------|-------------14-12----12-15b----14-12---|-12-15-------|

D|--------------------------------|-------------------14----------------14-|-------------|

A|--------------------------------|----------------------------------------|-------------|

E|--------------------------------|----------------------------------------|-------------|

e|-------------------|--------------10----(12~)-/|-----------------------|-------------|

b|-------------------|---------8-10----12--------|------------------(7~~)|---(15-~~~~)-|

g|-12-11-12-11-------|-----7-9-------------------|----------------7------|-------------|

D|-------------(12)/x|-7/9-----------------------|-----5h7--(5~~~)-------|-------------|

A|-------------------|---------------------------|-5-7-------------------|-------------|

E|-------------------|---------------------------|-----------------------|-------------|

e|----12----------------------------------|--------------|------------------|--------------10--12- |

b|-15b---15-12-----------------15~--------|-------(15~)--|------------------|---------8-10---12---|

g|-------------14-12----12-15b----14-12---|-12-15--------|12-11-12-11-------|-----7-9-------------|

D|-------------------14----------------14-|--------------|------------(12)/x|-7/9----------------- |

A|----------------------------------------|--------------|------------------|--------------------- |

E|----------------------------------------|--------------|------------------|---------------------|

[Riff]
e|---------------------------------|----------0-----------|

b|---------------------------------|----------0-----------|

g|----------------(5)-4-2----------|-5-5-4-5--------------|

D|-5-4-2--(5)-4-2----------5-4-2-0-|-5-5-4-5---------5-4--|

A|---------------------------------|-3-3-2-3----2----5-4--|

E|---------------------------------|------------0----3-2--|

[Verse]
Riff 1
Roqueros bonitos, educaditos
Riff 1
Con grandes gastos, educaditos
[Chorus]
Riff 2
Emboquen el tiro libre,
Riff 2
que los buenos volvieron,
Riff 2
y están rodando cine de terror.
[Bridge]
[Em - D - C - A] x2
[Riff]
e|---------------------------------|----------0-----------|

b|---------------------------------|----------0-----------|

g|----------------(5)-4-2----------|-5-5-4-5--------------|

D|-5-4-2--(5)-4-2----------5-4-2-0-|-5-5-4-5---------5-4--|

A|---------------------------------|-3-3-2-3----2----5-4--| x2

E|---------------------------------|------------0----3-2--|

[Outro]
[C C B C - D E]x2

C C B C D E