La niña de los andamios

To add a personal list must
or

Raly Barrionuevo

Version
studio
published by
iri
Tone
A-
A+
Slide
A -> La
Video
Chords
Translation
	 
[Riff]
e----------------- 0----------------------------------

b--------0h2p0-------0---0----------3--------0--------

G--------2-------2-----2----------0--0------2----2----

D-----2-------------------------0---------0-----------

A-----0-----------------------------------------------

E-----------------------------3---------2-------------

x4

[Verse]
A G D/F#
Fue verla regresar como un conjuro eterno.
A G D/F#
Dueña de su dolor, una mujer de sal.
F4 G A
Y una equilibrista en paz, desafiando muertes de alquitrán.
[Riff]
e----------------- 0----------------------------------

b--------0h2p0-------0---0----------3--------0--------

G--------2-------2-----2----------0--0------2----2----

D-----2-------------------------0---------0-----------

A-----0-----------------------------------------------

E-----------------------------3---------2-------------

x2

[Verse]
A G D/F#
Cardo silvestre en flor, en cicatriz danzante.
A G D/F#
Una ilusión de pan, pintando su verdad
F4 G A
Que refugia mi canción y la acuna en tierna dimensión.
[Riff]
e----------------- 0----------------------------------

b--------0h2p0-------0---0----------3--------0--------

G--------2-------2-----2----------0--0------2----2----

D-----2-------------------------0---------0-----------

A-----0-----------------------------------------------

E-----------------------------3---------2-------------

[Verse]
A G D/F#
Madre de un tiempo azul, niña de los andamios.
A G D/F#
A penas una luz que estalla en su rosal.
F13 G A
Con su historia me acunó, despertando el agua de mi voooooz.
[Verse]
A G D/F#
Habrá querido ser todo lo que dejó.
A G D/F#
Habrá querido herir todo lo que sanó.
F4 G4 A4
Madre de mi libertad compañera eterna de mi voz.
[Chorus]
A4 G D/F#
Es luz es tiempo andamio de los cielos.
A4 G D/F#
Es luz es tiempo andamio de los sueños.
A4 G D/F#
Es luz es tiempo andamio de los cielos.
A4 G D/F#
Es luz es tiempo andamio de los sueños.
[Verse]
A G D/F#
Hoy puedo verla así disfrutando su viaje
A G D/F#
Tan lúdica y feliz mirando desde allá
F4 G4 A4
En geométrica oración, consagrando el nombre de mi Dios.
[Riff]
e----------------- 0----------------------------------

b--------0h2p0-------0---0----------3--------0------- -

G--------2-------2-----2----------0--0------2----2----

D-----2-------------------------0---------0-----------

A-----0-----------------------------------------------

E-----------------------------3---------2-------------

x2

[Verse]
A G D/F#
Fue niña y caminó por senderos de cabra
A G D/F#
Fue joven y bailó con un fantasma azul
F4 G4 A4
Que en secreto la beso y en discreta luna la arrulló.
[Riff]
e----------------- 0----------------------------------

b--------0h2p0-------0---0----------3--------0------- -

G--------2-------2-----2----------0--0------2----2----

D-----2-------------------------0---------0-----------

A-----0-----------------------------------------------

E-----------------------------3---------2-------------

x2

[Bridge]
A4 Em
Ya es tiempo de partir, lo supo una mañana
A4 Em
El mundo no es al fin, lo que fue en la niñez.
F4 G4 D/F#
En silencio regresó a mil novecientos treita y dos.
[Verse]
A G D/F#
Habrá querido ser todo lo que dejó.
A G D/F#
Habrá querido herir todo lo que sanó.
F4 G4 A4
Madre de mi libertad compañera eterna de mi voz.
[Chorus]
A4 G D/F#
Es luz es tiempo andamio de los cielos.
A4 G D/F#
Es luz es tiempo andamio de los sueños.
A4 G D/F#
Es luz es tiempo andamio de los cielos.
A4 G D/F#
Es luz es tiempo andamio de los sueños.
This site uses cookies