Las coplas del campo

To add a personal list must
or

Raly Barrionuevo

Version
studio
published by
iri
Tone
A-
A+
Slide
A -> La
Video
Chords
Translation
	 
[Riff]
C7 Fm C7 Fm C7 Fm
e|-9-7--9-7--9-5-----5~4-----|-9-7--9-7--9-5-----5~4-----|-9---------|

b|10-9-10-9-10-7---7-----7---|10-9-10-9-10-7---7-----7---|--10-9-----|

G|---------------6---------6-|---------------6---------6-|------11---|

D|---------------------------|---------------------------|-----------|

A|---------------------------|---------------------------|-----------|

E|---------------------------|---------------------------|-----------|

x2

[Verse]
C7 Fm
Que lindo que es cantar
Eb Ab
las coplas del campo
Bbm Ab
ritual fiesta y dolor
C7 Fm
de mis hermanos.
[Riff]
C7 Fm C7 Fm C7 Fm

e|-9-7--9-7--9-5-----5~4-----|-9-7--9-7--9-5-----5~4-----|-9---------|

b|10-9-10-9-10-7---7-----7---|10-9-10-9-10-7---7-----7---|--10-9-----|

D|---------------6---------6-|---------------6---------6-|------11---|

G|---------------------------|---------------------------|-----------|

A|---------------------------|---------------------------|-----------|

E|---------------------------|---------------------------|-----------|

x2

[Verse]
C7 Fm
Milenaria cancion
Eb Ab
de misterio y barro
Bbm Ab
vidala y rebelion
C7 Fm
dignificados.
[Riff]
C7 Fm C7 Fm C7 Fm

e|-9-7--9-7--9-5-----5~4-----|-9-7--9-7--9-5-----5~4-----|-9---------|

b|10-9-10-9-10-7---7-----7---|10-9-10-9-10-7---7-----7---|--10-9-----|

G|---------------6---------6-|---------------6---------6-|------11---|

D|---------------------------|---------------------------|-----------|

A|---------------------------|---------------------------|-----------|

E|---------------------------|---------------------------|-----------|

x2

[Verse]
C7 Fm
El Mishqui Mayu el sol
Eb Ab
viejos musiqueros
Bbm Ab
habitantes de la
C7 Fm
tierra y el cielo.
[Chorus]
C7 Fm
Que lindo que es cantar
Eb Ab
las coplas del campo
Bbm Ab
ritual fiesta y dolor
C7 Fm
de mis hermanos.
[Riff]
C7 Fm C7 Fm C7 Fm

e|-9-7--9-7--9-5-----5~4-----|-9-7--9-7--9-5-----5~4-----|-9---------|

b|10-9-10-9-10-7---7-----7---|10-9-10-9-10-7---7-----7---|--10-9-----|

g|---------------6---------6-|---------------6---------6-|------11---|

D|---------------------------|---------------------------|-----------|

A|---------------------------|---------------------------|-----------|

E|---------------------------|---------------------------|-----------|

x2

[Verse]
C7 Fm
Hermanas del crespin
Eb Ab
y de los desiertos
Bbm Ab
las coplas que en soledad
C7 Fm
pregona el viento.
[Riff]
C7 Fm C7 Fm C7 Fm

e|-9-7--9-7--9-5-----5~4-----|-9-7--9-7--9-5-----5~4-----|-9---------|

b|10-9-10-9-10-7---7-----7---|10-9-10-9-10-7---7-----7---|--10-9-----|

g|---------------6---------6-|---------------6---------6-|------11---|

D|---------------------------|---------------------------|-----------|

A|---------------------------|---------------------------|-----------|

E|---------------------------|---------------------------|-----------|

x2

[Verse]
C7 Fm
Peregrinos del sol
Eb Ab
gemir de violines
Bbm Ab
memoria y corazon
C7 Fm
los bailarines.
[Riff]
C7 Fm C7 Fm C7 Fm

e|-9-7--9-7--9-5-----5~4-----|-9-7--9-7--9-5-----5~4-----|-9---------|

b|10-9-10-9-10-7---7-----7---|10-9-10-9-10-7---7-----7---|--10-9-----|

g|---------------6---------6-|---------------6---------6-|------11---|

D|---------------------------|---------------------------|-----------|

A|---------------------------|---------------------------|-----------|

E|---------------------------|---------------------------|-----------|

x2

[Verse]
C7 Fm
Sentires que en canción
Eb Ab
se vuelven nostalgia
Bbm Ab
presagio bien hecho
C7 Fm
de la salamanca.
[Chorus]
C#7 F#m
Que lindo que es cantar
Eb Ab
las coplas del campo
Bbm Ab
ritual fiesta y dolor
C7 Fm
de mis hermanos.