Tu Memoria y Tu Mañana

To add a personal list must
or

Raly Barrionuevo

Version
studio
published by
iri
Tone
A-
A+
Slide
A -> La
Video
Chords
Translation
	 
[Intro]
[Em - G - C - D - C - D - Em]x2
[Verse]
Em D/F# Em D Am
Cada lagrima valió, una estrella y un color
Bm C D Em
Un misterio y un amor, una espera de metralla
Em D/F# Em D Am
La frontera se corrió y el avaro destruyó,
Bm C D Em
sin escrúpulo ni son y sin importarle nada
[Bridge]
Am Bm C Am Bm C
A la tierra volverás, no la hieras nunca más
[Chorus]
C D C Bm Am
Ella cuida de tu flor, tu silencio y tu dolor
Bm C D Em
Tu semilla y tu color, tu memoria y tu mañana.
[Intro]
Em - G
[Tab]
e|-12---12-15-14-12-------------12--------------------------------|

b|------------------15-12----12----15-12------------12------------|

g|---------------------------------------14-12---12----14-12-11-9-|

D|----------------------------------------------------------------|

A|----------------------------------------------------------------|

E|----------------------------------------------------------------|

[Verse]
Em D/F# Em D Am
Cada lagrima caerá, roja de felicidad
Bm C D Em
Con la lluvia y con la sal, derribando la muralla
Em D/F# Em D Am
Y tu luna reveló un santuario de canción
Bm C D Em
Una espiga, un corazón, una lucha, una esperanza
[Bridge]
Am Bm C Am Bm C
A la tierra volverás, no la hieras nunca mas
[Chorus]
C D C Bm Am
Ella cuida de tu flor, tu silencio y tu dolor
Bm C D Em
Tu semilla y tu color, tu memoria y tu mañana
C D C Bm Am
Ella cuida de tu flor, tu silencio y tu dolor
Bm C D Em
Tu semilla y tu color, tu memoria y tu mañana.
[Tab]
e|-12---12-15-14-12-------------12--------------------------------|

b|------------------15-12----12----15-12------------12------------|

g|---------------------------------------14-12---12----14-12-11-9-|

D|----------------------------------------------------------------|

A|----------------------------------------------------------------|

E|----------------------------------------------------------------|

[Tab]
e|-12---12-15-14-12-------------12--------------------------------|

b|------------------15-12----12----15-12------------12------------|

g|---------------------------------------14-12---12----14-12-11-9-|

D|----------------------------------------------------------------|

A|----------------------------------------------------------------|

E|----------------------------------------------------------------|

[Chorus]
C D C Bm Am
Ella cuida de tu flor, tu silencio y tu dolor
Bm C D Em
Tu semilla y tu color, tu memoria y tu mañana
C D C Bm Am
Ella cuida de tu flor, tu silencio y tu dolor
Bm C D Em
Tu semilla y tu color, tu memoria y tu mañana.
C D Bm
tu memoria y tu mañana
C D Bm
tu memoria y tu mañana
C D Bm
tu memoria y tu mañana.
This site uses cookies