Par Mil

Para añadir a una lista personal debes
ó

Divididos

Versión
estudio
publicado por
iri
Tono
A-
A+
Deslizar
A -> La
Video
Acordes
	 
El G hacerlo con D y G de segunda y tercera cuerdas.

El acorde D, va en la mitad del 4to compás.

[Intro]

G D - G D - G D - G D

[Estrofa]
G D G (D)
Que hay de esa imagen en mi cielo
G D G (D)
No creo ser tan importante
G (D)
Camino mi propia luz
G (D)
y me siento un haz de luz
G (D)
Claridad de propio ser
[Estribillo]
G (D) C9 C9sus4 C
Luz, luz, luuuz del alma
C G (D)
soy un hombre que espera el alba
G (D)
...
[Estrofa]
G (D) G (D)
Que hay de esa imagen de mi infierno
G (D) G (D)
si ya fui roto a tomar aire
G (D)
caminaste por mis brasas
G (D)
me soñé en la oscuridad
G (D)
me estrelle contra mi
[Estribillo]
G (D) C9 C9sus4 C
Luz, luz, luuuuz del alma
C G (D)
soy un hombre que espera el alba
G
...
[Solo]
Em7 A D C9 G D
[Solo]
e|----12----|-9-------9-|-7-9-10------------|--------|

b|-12----12-|---12-10---|--------10-8-13-12-|-10-5-3-|

g|----------|-----------|-------------------|--------|

D|----------|-----------|-------------------|--------|

A|----------|-----------|-------------------|--------|

E|----------|-----------|-------------------|--------|

[Estrofa]
G (D)
No confunda che pastor
G (D)
no me interesa tu cielo
G (D)
toda el agua va hacia el mar
[Estribillo]
G (D) C9 C9sus4 C
Luz, luz, luuuz del alba
C G (D)
soy un hombre que espera el alba
G (D) C9 C9sus4 C
Luz, luz, luuuz del alba
C G (D)
soy un hombre que espera el alma
G
Uuuuuuh
[Instrumental]
Em7 A D C9 G D

Em7 A D C9 G

[Solo]
e|----12----|-9--7p9p7--5-9-|-7-9-10------------|----------|

b|-12----12-|---------------|--------10-8-13-12-|-15-12-10-|

g|----------|---------------|-------------------|----------|

D|----------|---------------|-------------------|----------|

A|----------|---------------|-------------------|----------|

E|----------|---------------|-------------------|----------|


e|----12----|-9p12p9--7p9p7--5p7p5--9--| -7-9-10------------|

b|-12----12-|--------------------------| --------10-8-13-12-|

g|----------|--------------------------|-------------------|

D|----------|--------------------------|-------------------|

A|----------|--------------------------|-------------------|

E|----------|--------------------------|-------------------|

Este sitio usa cookies