Peleador

+ nueva lista

Facón

Versión
estudio
publicado por
iri
Tono
A-
A+
Deslizar
A -> La
Video
Acordes
	 
[Riff]
G G G G D
e|------7-7------|------7-7------|------7-7----7-|-8-7-----------|

b|----------10-8-|----------10-8-|----------10---|-----10--------|

g|-7-7-----------|-7-7-----------|-7-7-----------|---------------|

D|---------------|---------------|---------------|---------------|

A|---------------|---------------|---------------|---------------|

E|---------------|---------------|---------------|---------------|

D D D D G
e|----------------|----------------|----------------|-7-----------|

b|------10-10-8-7-|------10-10-8-7-|-----10-10-9-10-|---10-8------|

g|-7-7------------|-7-7------------|-7-7------------|-------------|

D|----------------|----------------|----------------|-------------|

A|----------------|----------------|----------------|-------------|

E|----------------|----------------|----------------|-------------|

C C C C C C G
e|-----12-12-|-12-10-8-|-12-12-|-12-10-8-|-12-12-|-12-10-9-|-10-----|

b|-8-8-------|---------|-------|---------|-------|---------|----12--|

g|-----------|---------|-------|---------|-------|---------|--------|

D|-----------|---------|-------|---------|-------|---------|--------|

A|-----------|---------|-------|---------|-------|---------|--------|

E|-----------|---------|-------|---------|-------|---------|--------|

C C C C C A D
e|-----12-12-|-12-10-8-|-12-12-|-12-10-8-|-12-12-|-12-10-9-|-10-----|

b|-8-8-------|---------|-------|---------|-------|---------|--------|

g|-----------|---------|-------|---------|-------|---------|--------|

D|-----------|---------|-------|---------|-------|---------|--------|

A|-----------|---------|-------|---------|-------|---------|--------|

E|-----------|---------|-------|---------|-------|---------|--------|

[Estrofa]
G D G
Me pasé toda la mañana (repartiendo)
G D G
Las noticias llegan tempranas (repartiendo)
C C
Todos los días de la semana
C G
Llevando diarios pa´todo el pueblo,
C C
Las mentiras y las verdades,
A7 D
Cuáles son cuáles quién va a saber?
[Estrofa]
G D G
A las doce vuelvo pa´ casa (para el puchero)
G D G
Que mi negra me ha preparado (y eso está bueno)
C C
Y me cuentan que en el mercado
C G
El puesto de Carlo está clausurado
C C
Que vinieron esos de traje
A7 D
Y dijeron que no tenía CUI
[Estribillo]
C C
Peleador, siempre seguir luchando
G D
Peleador, la gente de mi barrio tiene la voz
D G G7
Cansada de pedirle a Dios.
C C
Peleador, nunca bajes la guardia
G D
Peleador, parece que al final tenías razón,
D G D7
Nuestro destino es Peleador.
[Riff]
G G G G D
e|------7-7------|------7-7------|------7-7----7-|-8-7-----------|

b|----------10-8-|----------10-8-|----------10---|-----10--------|

g|-7-7-----------|-7-7-----------|-7-7-----------|---------------|

D|---------------|---------------|---------------|---------------|

A|---------------|---------------|---------------|---------------|

E|---------------|---------------|---------------|---------------|

D D D D G
e|----------------|----------------|----------------|-7-----------|

b|------10-10-8-7-|------10-10-8-7-|-----10-10-9-10-|---10-8------|

g|-7-7------------|-7-7------------|-7-7------------|-------------|

D|----------------|----------------|----------------|-------------|

A|----------------|----------------|----------------|-------------|

E|----------------|----------------|----------------|-------------|

C C C C C C G
e|-----12-12-|-12-10-8-|-12-12-|-12-10-8-|-12-12-|-12-10-9-|-10-----|

b|-8-8-------|---------|-------|---------|-------|---------|----12--|

g|-----------|---------|-------|---------|-------|---------|--------|

D|-----------|---------|-------|---------|-------|---------|--------|

A|-----------|---------|-------|---------|-------|---------|--------|

E|-----------|---------|-------|---------|-------|---------|--------|

C C C C C A D
e|-----12-12-|-12-10-8-|-12-12-|-12-10-8-|-12-12-|-12-10-9-|-10-----|

b|-8-8-------|---------|-------|---------|-------|---------|--------|

g|-----------|---------|-------|---------|-------|---------|--------|

D|-----------|---------|-------|---------|-------|---------|--------|

A|-----------|---------|-------|---------|-------|---------|--------|

E|-----------|---------|-------|---------|-------|---------|--------|

[Estrofa]
G D G
Los domingos voy a la cancha (cocacolero)
G D G
Y me meto un rato en la hinchada (ponga más huevo)
C C
Lo que sale de la semana
C G
Desaparece en un momento
C C
Y se olvidan todos los males,
A7 D
Solo hay puteadas pa´l referí.
[Estrofa]
G D G
Me pasé toda la mañana (repartiendo)
G D G
Las noticias llegan tempranas (repartiendo)
C C
Todos los días de la semana
C G
Llevando diarios pa´ todo el pueblo,
C C
Las mentiras y las verdades,
A7 D
Cuáles son cuáles quién va a saber?
[Estribillo]
C C
Peleador, siempre seguir luchando
G D
Peleador, la gente de mi barrio tiene la voz
D G G7
Cansada de pedirle a Dios.
C C
Peleador, nunca bajes la guardia
G D
Peleador, parece que al final tenías razón,
D G D7
Nuestro destino es Peleador.
[Riff]
C G
e|-12-10-|-12-10-|-12-10-|-12-10-|-12-|-10-12-|-10-8-|-10-8-|-10-8-|-10-8-|-10-|-10-8-|

b|-------|-------|-------|-------|----|-------|------|------|------|------|----|------|

g|-------|-------|-------|-------|----|-------|------|------|------|------|----|------|

D|-------|-------|-------|-------|----|-------|------|------|------|------|----|------|

A|-------|-------|-------|-------|----|-------|------|------|------|------|----|------|

E|-------|-------|-------|-------|----|-------|------|------|------|------|----|------|

D D7 G G7
e|-7p8-7----7-8-|-10-7------|-------|

b|-------10-----|------10-8-|-8-7-6-|

g|--------------|-----------|-------|

D|--------------|-----------|-------|

A|--------------|-----------|-------|

E|--------------|-----------|-------|

C G
e|-12-10-|-12-10-|-12-10-|-12-10-|-12-|-10-12-|-10-8-|-10-8-|-10-8-|-10-8-|-10-|-10-8-|

b|-------|-------|-------|-------|----|-------|------|------|------|------|----|------|

g|-------|-------|-------|-------|----|-------|------|------|------|------|----|------|

D|-------|-------|-------|-------|----|-------|------|------|------|------|----|------|

A|-------|-------|-------|-------|----|-------|------|------|------|------|----|------|

E|-------|-------|-------|-------|----|-------|------|------|------|------|----|------|

D D7 G D G
e|-7p8-7----7-8-|-10-7------|-10-19-|

b|-------10-----|------10-8-|-------|

g|--------------|-----------|-------|

D|--------------|-----------|-------|

A|--------------|-----------|-------|

E|--------------|-----------|-------|

Este sitio usa cookies