Yo soy ella

Para añadir a una lista personal debes
ó

Facón

Versión
estudio
publicado por
iri
Tono
A-
A+
Deslizar
A -> La
Video
Acordes
	 
[Estribillo]
F C
La luz mas bella,
E Am
toda la música de las estrellas
F C
si yo soy ella
E
y cada día....
[Riff]
F C
e|---------------------------------|-1-1----1-1-|-----------------|-----------|

b|---------------------------------|-1-1----1-1-|-----------------|-1-1-----1-|

g|---------------------------------|-2-2----2-2-|-----------------|-0-0-----0-|

D|-------------------------2-2-2-2-|-3----------|-2p3-2-----------|-2---2-2---|

A|-0-0-0-0-2-2-2-2-3-3-3-3---------|-3--3-3-----|-------5-3-2---3-|-3---3-3---|

E|---------------------------------|-1--1-1-----|-------------5---|-----------|

F G
e|---------------------------------|-1-1----1-1-|-------------------|-3-|

b|---------------------------------|-1-1----1-1-|-------------------|-3-|

g|---------------------------------|-2-2----2-2-|-------------------|-4-|

D|-------------------------2-2-2-2-|-3----------|-------------------|-5-|

A|-0-0-0-0-2-2-2-2-3-3-3-3---------|-3--3-3-----|-----------3p5-3---|-5-|

E|---------------------------------|-1--1-1-----|-1-1-3-3/5-------3-|-3-|

[Estrofa]
C
Lucesita de la noche, dejame otro carnaval,
C
quiero que siempre despiertes adorando libertad
F
el sueño pasa por despertar
Dm C
y descubrir que la vida es cosa buena
G
caen las penas!
[Estrofa]
C
Señora de los milagros llevamé hasta el carnaval,
C
las patas sobre la tierra, ya se armó el polvareral
F
esta es la fiesta del corazón,
Dm C
y están tus ojos mi mayor riqueza
G
besa que te besa!
[Estribillo]
F C E Am (B-C-E)
La luz mas bella, toda la música de las estrellas
F C E
si yo soy ella, y cada día
Am
me muero por verte asi bailar,
F
queriendo la lava de tu volcán,
C
los días son buenos una vez más,
C
las flores del campo te los dirán
G C
¡Bienvenido carnaval!
[Riff]
F C
e|---------------------------------|-1-1----1-1-|-----------------|-----------|

b|---------------------------------|-1-1----1-1-|-----------------|-1-1-----1-|

g|---------------------------------|-2-2----2-2-|-----------------|-0-0-----0-|

D|-------------------------2-2-2-2-|-3----------|-2p3-2-----------|-2---2-2---|

A|-0-0-0-0-2-2-2-2-3-3-3-3---------|-3--3-3-----|-------5-3-2---3-|-3---3-3---|

E|---------------------------------|-1--1-1-----|-------------5---|-----------|

F G
e|---------------------------------|-1-1----1-1-|-------------------|-3-|

b|---------------------------------|-1-1----1-1-|-------------------|-3-|

g|---------------------------------|-2-2----2-2-|-------------------|-4-|

D|-------------------------2-2-2-2-|-3----------|-------------------|-5-|

A|-0-0-0-0-2-2-2-2-3-3-3-3---------|-3--3-3-----|-----------3p5-3---|-5-|

E|---------------------------------|-1--1-1-----|-1-1-3-3/5-------3-|-3-|

[Estrofa]
C
Lucesita de la noche, dejamé otro carnaval
C
borracho pero de vida,bailando por la ciudad,
F
llevo tu fuerza en mi caminar
Dm C
abro mi casa, ventanas y puertas
G
ay ya esta abierta
[Estrofa]
C
Virgen de todos los milagros quiero verte zapatear,
C
revoleando la corona y las espinas para atrás,
F
que esta la fiesta de la verdad
Dm C
y mi mirada en tu cabello trenza,
G
todo se trenza
[Estribillo]
F C E Am (B-C-E)
La luz mas bella, toda la música de las estrellas
F C E
si yo soy ella, y cada día
Am
me muero por verte asi bailar,
F
queriendo la lava de tu volcán,
C
los días son buenos una vez más,
C
las flores del campo te los dirán
Am
me muero por verte asi bailar,
F
queriendo la lava de tu volcán,
C
los días son buenos una vez más,
C
las flores del campo nos lo dirán
G F
¡Bienvenido carnaval!
G F
¡Bienvenido carnaval! (la luz más bella)
G F
¡Bienvenido carnaval! (la luz más bella)
G F
¡Bienvenido carnaval!
C - C
Este sitio usa cookies