Amapola

Para añadir a una lista personal debes
ó

Grupo 4.40

Versión
estudio
publicado por
rafah
Tono
A-
A+
Deslizar
A -> La
Video
Acordes
	 
[Intro]
A Bm4
E|---------0------------------0-------------|

B|-0-2---2---0h2------3---------3-----------|

G|-----2---------2------4---4-----4---------|

D|------------------4-----4---------4-------|

A|-0----------------------------------------|

E|------------------------------------------|

Bm7(b5) A9
E|-----------0------------------0-----------|

B|---3---------3--------0---------0---------|

G|-----2---2-----2--------2---2-----2-------|

D|-3-----3---------3--2-----2---------2-----|

A|------------------------------------------|

E|------------------------------------------|

A Bm4
E|---------0------------------0-------------|

B|-0-2---2---0h2------3---------3-----------|

G|-----2---------2------4---4-----4---------|

D|------------------4-----4---------4-------|

A|-0----------------------------------------|

E|------------------------------------------|

Bm7(b5) A9
E|-----------0------------------0-----------|

B|---3---------3--------0---------0---------|

G|-----2---2-----2--------2---2-----2-------|

D|-3-----3---------3--2-----2---------2-----|

A|------------------------------------------|

E|------------------------------------------|

[Estrofa]
A Bm4
Abre las hojas del viento, mi vida
Bm7(b5) A7M
Ponle una montura al rio
A7 Bm7
Cabalga y si te da frio te arropas
Bm7(b5) A9
Con la piel de las estrellas
A7(9) Bm7
De almohada la luna llena, mi vida
Bm7(b5) A9
Y de sueño el amor mío
[Estribillo]
A Bm4
Y una amapola, me lo dijo ayer
Bm7(b5) A9
Que te voy a ver, que te voy a ver
A Bm4
Y un arcoíris me pinto la piel
Bm7(b5) A9
Para amanecer contigo oh oh
A Bm4
Y una amapola, me lo dijo ayer
Bm7(b5) A9
Que te voy a ver, que te voy a ver
A Bm4
Y un arcoíris me pinto la piel
Bm7(b5) A9
Para amanecer contigo
[Instrumental]
A Bm4 Bm7(b5) A9
[Estrofa]
A Bm4
Cierra la noche y el día, mi vida
Bm7(b5) A7M
Para que todo sea nuestro
A7 Bm7
Y una gran fuga de besos
Bm7(b5) A9
Se pose sobre tu boca
A7(9) Bm
Y que´l trinar de las rosas, mi vida
Bm7(b5) A9
Te digan cuanto te quiero
[Estribillo]
A Bm4
Y una amapola, me lo dijo ayer
Bm7(b5) A9
Que te voy a ver, que te voy a ver
A Bm4
Y un arcoíris me pinto la piel
Bm7(b5) A9
Para amanecer contigo oh oh
A Bm4
Y una amapola, me lo dijo ayer
Bm7(b5) A9
Que te voy a ver, que te voy a ver
A Bm4
Y un arcoíris me pinto la piel
Bm7(b5) A9
Para amanecer contigo
[Outro]
A Bm4 Bm7(b5) A9 (x2)
Este sitio usa cookies