Ooohhhh

Para añadir a una lista personal debes
ó

Hector Buitrago

Versión
estudio
publicado por
iri
Tono
A-
A+
Deslizar
A -> La
Video
Acordes
	 
[Intro]
B

F - Em - Am

[Estrofa]
F Em
Ooohhhh
F Am
Ooohhhh
F Em
Ondula la clorofila, en las alturas andinas
F Em
El Cóndor esta en la casa, el Águila ya en la plaza
F Em
Ooohhhh
F Am
Ooohhhh
[Estrofa]
F Em
Mezcolanza es nuestra lanza, mientras la aventura avanza
F Am
Bolívar esta en la puerta, toda América despierta
F Em
Ooohhhh
F Am
Ooohhhh
[Estrofa]
F Em
Los invito a este pesebre, Pa’ que vengan y celebren
F Am
El recado de la vida, Dicho en la boca debida
[Puente]
F - Em - F - Am
[Riff]
E|-12-8--------|-12-8--------|-12-8--------|-12-8--------|

B|-------10----|-------10----|-------10----|-------10----|

G|-----------9-|-----------9-|-----------9-|-----------9-|

D|-------------|-------------|-------------|-------------|

A|-------------|-------------|-------------|-------------|

E|-------------|-------------|-------------|-------------|


E|-10-7------|-10-7------|-10-7------|-10-7------|

B|------8----|------8----|------8----|------8----|

G|---------9-|---------9-|---------9-|-----------|

D|-----------|-----------|-----------|-----------|

A|-----------|-----------|-----------|-----------|

E|-----------|-----------|-----------|-----------|


E|-12-8--------|-12-8--------|-12-8--------|-12-8--------|

B|-------10----|-------10----|-------10----|-------10----|

G|-----------9-|-----------9-|-----------9-|-----------9-|

D|-------------|-------------|-------------|-------------|

A|-------------|-------------|-------------|-------------|

E|-------------|-------------|-------------|-------------|


E|-8-7-----|-8-7------|-8-7------|-8-7------|

B|-----8---|-----8----|-----8----|-----8----|

G|-------9-|--------9-|--------9-|--------9-|

D|---------|----------|----------|----------|

A|---------|----------|----------|----------|

E|---------|----------|----------|----------|

[Estribillo]
F Em
Epicentro de las fuerzas, que nos rigen nos dirigen
F Am
nos dirigen y nos rigen, nos retornan al origen,
F Em
Epicentro de las fuerzas, que nos rigen nos dirigen
F Am
nos dirigen y nos rigen, nos retornan al origen.
[Puente]
F - Em - F - Am
F - Em - F - Am
F Em
Ooohhhh
F Am
Ooohhhh
[Estrofa]
F Em
Ondula la clorofila, en las alturas andinas
F Em
El Cóndor esta en la casa, el Águila ya en la plaza
F Em
Ooohhhh
F Am
Ooohhhh
[Estrofa]
F Em
Mezcolanza es nuestra lanza, mientras la aventura avanza
F Am
Bolívar esta en la puerta, toda América despierta
F Em
Ooohhhh
F Am
Ooohhhh
[Estrofa]
F Em
Los invito a este pesebre, Pa’ que vengan y celebren
F Am
El recado de la vida, Dicho en la boca debida
F Em
Ooohhhh
F Am
Ooohhhh
[Estrofa]
F Em
Epicentro de las fuerzas, que nos rigen nos dirigen
F Em
Epicentro de las fuerzas, que nos rigen nos dirigen
F Em
Epicentro de las fuerzas, que nos rigen nos dirigen
F Em
Epicentro de las fuerzas, que nos rigen nos dirigen
Este sitio usa cookies