Lamente Zen

Para añadir a una lista personal debes
ó

Hector Buitrago

Versión
estudio
publicado por
iri
Tono
A-
A+
Deslizar
A -> La
Video
Acordes
	 
[Intro]
G - A
[Estrofa]
G A
Arreglele la fe, el poder ser miel
G A
entre el oropel, entre el oropel
G A
conectele a la Belén, gocelé Edén
G A
a la mente zen, lo dije re zen
G A E
cántele alebele, goce en el Edén
E
eleve la vida.
[Riff]
E|---|--------|---|---------|-----|

B|---|--------|---|---------|-----|

G|---|--------|---|---------|-----|

D|---|----2-3-|---|---------|-----|

A|---|--2-----|-5-|-3-5-3-5-|-2---|

E|-0-|--------|---|---------|-----|

[Estribillo]

heo´mate amge´o oh , hu showa ...
[Estrofa]
G A
Alegrele el vaivén , lo dice re-bien
G A
la mujer corcel , elevele el nivel
G A
arreglele la fe , el poder ser miel ,
G A
entre el oropel , conectele el eden
G A E
conectele, bailele, lo dice re-bien,
E
la mujer corcel
[Riff]
E|---|---------|---|---------|-----|

B|---|---------|---|---------|-----|

G|---|----9-10-|-7-|-5-7-5-7-|-4---|

D|---|----9-10-|---|---------|-----|

A|---|---------|---|---------|-----|

E|-0-|---------|---|---------|-----|

[Estribillo]

heo´mate amge´o oh

hu showa

aka mawate

huka huka mawa

u´sha

ah mate´io

heyana heyana heyana

heyana heyana heyana

heo!

es´a wasi wa´wa

e´wasama wasama

wasawa

wa´nativa

atabaya

usuba

a´shawa

akamatua

u´wata mayaba

aka´mantaya

aka´mishu a´hu

kia/ a´hu

a´hu a´hu!
[Estrofa]
G A
cantele, alabele, extraigale la hiel
G A
elevele el nivel, al alma y la piel
G A
alegrele el vaivén, gocele el edén
G A
a la mente zen, cambiele el casete
G A E
arreglele la fe, el poder ser miel
E
entre el oropel, entre el oropel.
[Riff]
E|---|--------|---|---------|-----|

B|---|--------|---|---------|-----|

G|---|--------|---|---------|-----|

D|---|----2-3-|---|---------|-----|

A|---|--2-----|-5-|-3-5-3-5-|-2---|

E|-0-|--------|---|---------|-----|

Repite 2 veces
Este sitio usa cookies