Tiempo Paralelo Le

Para añadir a una lista personal debes
ó

Hector Buitrago

Versión
estudio
publicado por
iri
Tono
A-
A+
Deslizar
A -> La
Video
Acordes
	 
[Riff]
G Em G F13
E|-----------|--------0----|------------|-------------|

B|-------0-0-|------5-5----|------0-0---|------3------|

G|-----4-4-4-|----4--------|----4-4-4---|----2--------|

D|--5--------|--5----------|--5---------|--3----------|

A|-----------|-------------|------------|-------------|

E|3----------|0------------|3-----------|1------------|

La canción puede acompañarse con el Riff o los acordes indicados.
[Estrofa]
G Em
Tiempo para manifestar,
G F13
tiempo para hacer cumplir el plan,
G Em
tiempo de una sola intención,
G F13
fuentes tendré con admiración.
G Em
Viene todo a su tiempo,
G F13
llega todo en su justo momento...
G Em
la galaxia lo siente,
G F13
mensaje a alma de fiesta se viene...
G Em
la galaxia lo siente,
G F13
el hombre nuevo se viene de fiesta
[Riff]

E|-------|------|

B|-------|------|

G|-------|------|

D|-------|------|

A|--7--6-|-5----|

E|5------|----3-|

[Pre-Estribillo]

lelo lelo lelo lelo lelo lelo lelo lelo lelo lelo le
[Estribillo]
Tiempo para bailar

tiempo para cantar

lelo lelo le

soy Martina Camargo

vengo de San Martin de Loba

lelo lelo lelo lelo lelo le le

tierra de la parraya, la tambora

y el pescao, la canoa

lelo lelo lelo lelo le le...
[Riff]
G Em G F13

E|-----------|--------0----|------------|-------------|

B|-------0-0-|------5-5----|------0-0---|------3------|

G|-----4-4-4-|----4--------|----4-4-4---|----2--------|

D|--5--------|--5----------|--5---------|--3----------|

A|-----------|-------------|------------|-------------|

E|3----------|0------------|3-----------|1------------|

3 veces
[Estrofa]
G Em
Tiempo para la redención,
G F13
para escuchar la voz del perdon,
G Em
tiempo de una revolución...
G F13
el estar vivo la única razón.
G Em
Viene todo a su tiempo,
G F13
llega todo en su justo momento...
G Em
un solo pensamiento,
G F13
los nuevos vientos de fiesta que soplen...
G Em
un solo pensamiento,
G F13
los buenos vientos que soplen de fiesta...
[Puente]
G - Em - G - F G/B
[Estribillo]
G Em G
tiempo para bailar, tiempo para gozar
G - Em - G - F G/B
G Em G (F C)
tiempo para relampaguear
G Em
cartagena, cartagena
G F C
levante lelo lelo lelo le le
G Em G
tiempo para ti

tiempo para cantar

tiempo
Este sitio usa cookies