Capitán América

Para añadir a una lista personal debes
ó

Las Pelotas

Versión
estudio
publicado por
iri
Tono
A-
A+
Deslizar
A -> La
Video
Acordes
	 
[Estrofa]
A G
Moviendose, torres de cristales
A G A
irrompibles frente a mi, garantizado
A G
Caen sobre mí, las cadenas de supermercados,
A G A
compre más barato, garantizado.
[Estribillo]
D Bm D Bm
Moviéndose, caen sobre mi
D Bm A
correrse pa´l fondo
C#m D
y si no puedo ver donde voy
C#m E
parece que me paseeee
[Estrofa]
A G
América, debo estar en América del Sur
A G A
bien al sur!!! Garantizado
A G
Salpicándome sobre la ropa recién lavada
A G A
con jabón en polvo, Garantizado
[Estribillo]
D Bm D Bm
Moviéndose, caen sobre mi
D Bm A
correrse pa´l fondo
C#m D
y si no puedo ver donde voy
C#m E
parece que me paseeee
[Tablatura]
e|-------------------------------------------------------- |

b|--------------8-6--------------8-6-------9-9-8---------- |

g|------------8-----8----------------8-7---------8-10-8--- |

D|--6-5---5-8---------5-7-8--8-8-------------------------- |

A|------6------------------------------------------------- |

E|--------------------------------------------------------|

[Riff]
Happy birthdat, to you!
[Tablatura]
e|-11-10-8--------------------|----------------|---------------- |

b|---------11-9-8---------8-8-|------------8-8-|------------8--- |

g|----------------10-8-10-----|-7-8-10-8-7-----|-7-8-10-8-7---5- |

D|----------------------------|-------------- --| ----------------|

A|----------------------------|----------------|---------- ------|

E|----------------------------|----------------|----------------|

Este sitio usa cookies