Solo

Para añadir a una lista personal debes
ó

Las Pelotas

Versión
estudio
publicado por
iri
Tono
A-
A+
Deslizar
A -> La
Video
Acordes
	 
[Intro]
Dm - Am x4

Dm F Am C x4

[Estrofa]
Dm F Am C Dm F Am C
Voy andando en los trenes por viajar
Dm F Am C Dm F Am C
Veo miles de personas sin mirar
Dm F Am C
la locura colectiva
Dm F Am C
la locura individual
Dm F Am C Dm F Am C
hoy queria estar con gente sin hablar
[Puente]
(Dm F Am C) x4
[Estrofa]
Dm F Am C Dm F Am C
A pesar de los lugares que visitas
Dm F Am C Dm F Am C
a pesar de las bocas con las que hablas
Dm F Am C Dm F Am C
a pesar de la musica que escuchas
Dm F Am C
solo vas
Dm F Am C
solo estas
[Estribillo]
Dm F Am C
Sooolo para pensar
Dm F Am C
Sooolo para mirarte
Dm F Am C
sooolo y no poder llorar.
Dm F Am C
Dm F Am C
Sooolo para pensar
Dm F Am C
Sooolo para mirarte
Dm F Am C
sooolo y no poder llorar.
Dm F Am C
Noooooooo
[Solo]
e|---------------|----------------|----------------|----------------|

B|--5/(6)--5-----|----------------|--5/(6)--5------|--10------------|

G|------------7--|--9--10--12-----|------------7---|----------------|

D|---------------|----------------|----------------|----------------|

A|---------------|----------------|----------------|----------------|

E|---------------|----------------|----------------|----------------|

e|---------------|----------------|----------------|----------------|

B|--5/(6)--5-----|----------------|----------------|--10------------|

G|------------7--|--5-5--7--------|--5-5/(7)--7----|----------------|

D|---------------|----------------|----------------|----------------|

A|---------------|----------------|----------------|----------------|

E|---------------|----------------|----------------|----------------|

[Estrofa]
Dm F Am C Dm F Am C
Sigo andando en los trenes por viajar
Dm F Am C Dm F Am C
sigo viendo a las personas sin mirar
Dm F Am C Dm F Am C
la locura colectiva
Dm F Am C Dm F Am C
la locura individual
Dm F Am C Dm F Am C
hoy queria estar con gente sin hablar
[Estribillo]
Dm F Am C
Sooolo para pensar
Dm F Am C
Sooolo para mirarme
Dm F Am C
sooolo y no poder llorar.
Dm F Am C
Dm F Am C
Sooolo para pensar
Dm F Am C
Sooolo para mirarme
Dm F Am C
sooolo y no poder llorar.
Dm F Am C
[Puente]
Dm - F - Am - C
Dm - F - Am - C
Dm - F - Am - C
Dm - F - Am - C
[Outro]
(Dm - F - Am - C) x4

Dm


Este sitio usa cookies