Será

Para añadir a una lista personal debes
ó

Las Pelotas

Versión
estudio
publicado por
iri
Tono
A-
A+
Deslizar
A -> La
Video
Acordes
	 
[Riff]
e|-----------------------------------|

b|-----------------------------------|

g|-----------------------------------|

D|-----1-3------1-3-------1-3-----1-3|

A|-1-1----------------1-1------------|

E|----------1-1----------------1-1---|

Bb Fm Bb Fm
e|-8-8-8-8\6-6-6-6\4-4-4-4\1-1---1-1-1-4/6-4/6--4/6-4/6----|

b|---------------------------------------------------------|

g|---------------------------------------------------------|

D|---------------------------------------------------------|

A|---------------------------------------------------------|

E|---------------------------------------------------------|

Bb Fm Bb Fm
e|-8-8-8-8\6-6-6-6\4-4-4-4\1-1---1-1-1-4/6-4/6--4/6-1------|

b|---------------------------------------------------------|

g|---------------------------------------------------------|

D|---------------------------------------------------------|

A|---------------------------------------------------------|

E|---------------------------------------------------------|

[Estrofa]
Bb Fm Bb Fm
Yo no lo sé todavía, lo que me hiciste sentir
G# Bb Cm
es como la fiebre cuando quema
Bb Fm Bb Fm
Si la nube que arrastras llegara a un sitio final
G# Bb Cm
¿cuánto tiempo guardas un secreto?
[Estribillo]
Bb Fm
Será por ti, será por mí,
Bb Fm
será por todo lo que fuimos
Bb Fm Bb Fm
hasta el amanecer
[Riff]
e|-8-8-8-8\6-6-6-6\4-4-4-4\1-1---1-1-1-4/6-4/6--4/6-4/6----|

b|---------------------------------------------------------|

g|---------------------------------------------------------|

D|---------------------------------------------------------|

A|---------------------------------------------------------|

E|---------------------------------------------------------|

e|-8-8-8-8\6-6-6-6\4-4-4-4\1-1---1-1-1-4/6-4/6--4/6-1------|

b|---------------------------------------------------------|

g|---------------------------------------------------------|

D|---------------------------------------------------------|

A|---------------------------------------------------------|

E|---------------------------------------------------------|

[Estrofa]
Bb Fm Bb Fm
Desde el monte que abrazo, camino sin explorar
G# Bb Cm
¿calmará la lluvia este desierto?
Bb Fm Bb Fm
Con el alma en las manos, tratando de descubrir
G# Bb Cm
¿aué será de nuestro cuerpo alado?
[Estribillo]
Bb Fm
Será por ti, será por mí,
Bb Fm
será por todo lo que fuimos
Bb Fm Bb Fm
hasta el amanecer
Bb Fm
Será por ti, será por mí,
Bb Fm
será por todo lo que fuimos
Bb Fm Bb Fm
hasta el amanecer
Bb Fm Bb Fm
hasta el amanecer
Bb Fm
Será por ti, será por mí,
Bb Fm
será por todo lo que fuimos
Bb Fm Bb Fm
hasta el amanecer.
Bb Fm Bb Fm
hasta el amanecer.
Este sitio usa cookies