Comodín

Para añadir a una lista personal debes
ó

No Te Va Gustar

Versión
acústica
publicado por
iri
Tono
A-
A+
Deslizar
A -> La
Video
Acordes
	 
[Riff]
A A6 A7 A6 A A6 A7 A6 A A6 A7 A6
e|---|---|---|---|---|---|---|-------------|---|---|---|---|

b|---|---|---|---|---|---|---|-------------|---|---|---|---|

g|---|---|---|---|---|---|---|-------------|---|---|---|---|

D|-2-|-4-|-5-|-4-|-2-|-4-|-5-|-4-----------|-2-|-4-|-5-|-4-|

A|-0-|-0-|-0-|-0-|-0-|-0-|-0-|-0---------0-|-0-|-0-|-0-|-0-|

E|---|---|---|---|---|---|---|--------0-3--|---|---|---|---|

[Estrofa]
A
Hace días te quiero decir,
A
tardé mucho en decidir,
G D
mi futuro, es parte de mi vida.
[Puente]
A A6 A7 A6
[Estrofa]
A (E-G-A)
Esta noche llega al fin,
A
no soy mas un comodín
G D
recupero la libertad perdida.
[Estribillo]
Bm D
Entérate con esta canción,
Bm D A
no soy más tu segunda opción.
[Puente]
A - A - A- G - D

A - G D

[Riff]
A A6 A7 A6

e|---|---|---|---|

b|---|---|---|---|

g|---|---|---|---|

D|-2-|-4-|-5-|-4-|

A|-0-|-0-|-0-|-0-|

E|---|---|---|---|

[Estrofa]
A
Basta de cientos de días nublados,
A
basta de miles de sueños ahogados
G D A
cambio lo que tengo por salud mental.
[Puente]
A
[Estrofa]
A
Cierro la puerta y me trago la llave
A
los que me quieren, entienden y saben
G D A
que traigo lo opuesto y con eso no me va mal.
[Puente]
A - G D
[Estribillo]
Bm D
Entérate con esta canción,
Bm D A
no soy más tu segunda opción.
A
Bm D
Entérate con esta canción,
Bm D A
no soy más tu segunda opción.
A - A - A - G - D - A
A G D
Escúchame más que nunca,
A G D A
no soy tu segunda opción
A G D A
Escúchame más que nunca,
G D A
no soy tu segunda opción.
A
Este sitio usa cookies