Melodía viajera

Para añadir a una lista personal debes
ó

Raly Barrionuevo

Versión
vivo
publicado por
iri
Tono
A-
A+
Deslizar
A -> La
Video
Acordes
	 
[Riff]
e|---------------------------|

b|---------------------------|

g|---------------------------|

D|-0-0----0-0----0-0----0-0--|

A|---------------------------|

E|---------------------------|

G Am D7 G

e|------10-----10-|-----9-----9--|-8p7----7-8-12-10-|----|

b|----12----12----|---10---10----|-----10-----------|-12-|

g|--12------------|--9-----------|------------------|----|

D|-0--------------|-0------------|------------------|----|

A|----------------|--------------|------------------|----|

E|----------------|--------------|------------------|----|

G Am D7 G

e|------10-----10-12|-----9-----9--|-8p7----7-8-10--|----|

b|----12----12------|---10---10----|-----10---------|-12-|

g|--12--------------|--9-----------|----------------|----|

D|-0----------------|-0------------|----------------|----|

A|------------------|--------------|----------------|----|

E|------------------|--------------|----------------|----|

El Riff en su parte final, no es exactamente igual a como lo toca Raly, pero si sus notas y melodía.
[Intro]
G – Am7 – D7/F# - G x2
[Estrofa]
Bm Em7
Hoy a mi viejo Santiago
Bm7
Quiero cantarle una chacarera
E7 Am
Que nazca dentro del alma
D7 G
Como quien nace una estrella.
[Puente]
G – Am7 – D7/F# - G x2
[Riff]
G Am D7 G

e|------10-----10-|-----9-----9--|-8p7----7-8-12-10-|----|

b|----12----12----|---10---10----|-----10-----------|-12-|

g|--12------------|--9-----------|------------------|----|

D|-0--------------|-0------------|------------------|----|

A|----------------|--------------|------------------|----|

E|----------------|--------------|------------------|----|

G Am D7 G

e|------10-----10-12|-----9-----9--|-8p7----7-8-10--|----|

b|----12----12------|---10---10----|-----10---------|-12-|

g|--12--------------|--9-----------|----------------|----|

D|-0----------------|-0------------|----------------|----|

A|------------------|--------------|----------------|----|

E|------------------|--------------|----------------|----|

[Estrofa]
Bm Em7
Silbando una melodía
Bm7
Caminando viejas sendas
E7 Am
Perderme medio del monte
D7 G
Ser bombo y caja en la siesta.
[Puente]
G – Am7 – D7/F# - G x2
[Riff]
G Am D7 G

e|------10-----10-|-----9-----9--|-8p7----7-8-12-10-|----|

b|----12----12----|---10---10----|-----10-----------|-12-|

g|--12------------|--9-----------|------------------|----|

D|-0--------------|-0------------|------------------|----|

A|----------------|--------------|------------------|----|

E|----------------|--------------|------------------|----|

G Am D7 G

e|------10-----10-12|-----9-----9--|-8p7----7-8-10--|----|

b|----12----12------|---10---10----|-----10---------|-12-|

g|--12--------------|--9-----------|----------------|----|

D|-0----------------|-0------------|----------------|----|

A|------------------|--------------|----------------|----|

E|------------------|--------------|----------------|----|

[Estrofa]
Bm Em7
Con ritmo de salamanca
Bm7
Rumbear pa'el lao' la trinchera
E7 Am
Bailar con la que mas quiero
D7 G
Mi santiagueña morena
[Estribillo]
Bm Em7
Quiero cantarte santiago
Bm7
Tu melodía viajera
E7 Am
Que tu hechizo magia agreste
D7 G
Me convierta en chacarera
[Puente]
G – Am7 – D7/F# - G x2
[Riff]
G Am D7 G

e|------10-----10-|-----9-----9--|-8p7----7-8-12-10-|----|

b|----12----12----|---10---10----|-----10-----------|-12-|

g|--12------------|--9-----------|------------------|----|

D|-0--------------|-0------------|------------------|----|

A|----------------|--------------|------------------|----|

E|----------------|--------------|------------------|----|

G Am D7 G

e|------10-----10-12|-----9-----9--|-8p7----7-8-10--|----|

b|----12----12------|---10---10----|-----10---------|-12-|

g|--12--------------|--9-----------|----------------|----|

D|-0----------------|-0------------|----------------|----|

A|------------------|--------------|----------------|----|

E|------------------|--------------|----------------|----|

[Estrofa]
Bm Em7
Comiendo arrope de tuna
Bm7
Macharme con tu silencio
E7 Am
Llenarme el pecho y el alma
D7 G
Con aromas de poleo.
[Puente]
G – Am7 – D7/F# - G x2
[Riff]
G Am D7 G

e|------10-----10-|-----9-----9--|-8p7----7-8-12-10-|----|

b|----12----12----|---10---10----|-----10-----------|-12-|

g|--12------------|--9-----------|------------------|----|

D|-0--------------|-0------------|------------------|----|

A|----------------|--------------|------------------|----|

E|----------------|--------------|------------------|----|

G Am D7 G

e|------10-----10-12|-----9-----9--|-8p7----7-8-10--|----|

b|----12----12------|---10---10----|-----10---------|-12-|

g|--12--------------|--9-----------|----------------|----|

D|-0----------------|-0------------|----------------|----|

A|------------------|--------------|----------------|----|

E|------------------|--------------|----------------|----|

[Estrofa]
Bm Em7
Ay mi Santiago te extraño
Bm7
Cuando me voy de tus cielos
E7 Am
La sal la ausencia que añoro
D7 G
Me ha de quemar en su tiempo.
[Puente]
G – Am7 – D7/F# - G x2
[Riff]
G Am D7 G

e|------10-----10-|-----9-----9--|-8p7----7-8-12-10-|----|

b|----12----12----|---10---10----|-----10-----------|-12-|

g|--12------------|--9-----------|------------------|----|

D|-0--------------|-0------------|------------------|----|

A|----------------|--------------|------------------|----|

E|----------------|--------------|------------------|----|

G Am D7 G

e|------10-----10-12|-----9-----9--|-8p7----7-8-10--|----|

b|----12----12------|---10---10----|-----10---------|-12-|

g|--12--------------|--9-----------|----------------|----|

D|-0----------------|-0------------|----------------|----|

A|------------------|--------------|----------------|----|

E|------------------|--------------|----------------|----|

[Estrofa]
Bm Em7
Un changuito y un cachilo
Bm7
Que por tus entrañas viajan
E7 Am
Me han de llevar a tu monte
D7 G
Para empapar con nostalgias.
[Estribillo]
Bm Em7
Quiero cantarte santiago
Bm7
Tu melodía viajera
E7 Am
Que tu hechizo magia agrestre
D7 G
Me convierta en chacarera.
Este sitio usa cookies