Versión
estudio
publicado por
iri
Tono
A-
A+
Deslizar
A -> La
Video
Acordes
Traducción
	 
[Riff]
F#m E6 F#m
e|----------------|------------(0)-|----------------|

b|------------(2)-|------------(2)-|------------(2)-|

g|------------(2)-|------------(1)-|------------(2)-|

D|------------(4)-|------------(2)-|------------(4)-|

A|------7--6--(4)-|---7--6--4--(2)-|---7--6--4--(4)-|

E|---7--------(2)-|-7----------(0)-|-7----------(2)-|

[Intro]
F#m - E6 - F#m
[Estrofa]
F#m C#m
I give her all my love
F#m C#m
That's all I do
F#m C#m
And if you saw my love
A B7
You'd love her too
E
I love her
[Estrofa]
F#m C#m
She gives me everything
F#m C#m
And tenderly
F#m C#m
The kiss my lover brings
A B7
She brings to me
E
And I love her
[Puente]
C#m B
A love like ours
C#m G#m
Could never die
C#m G#m
As long as I
B B7
Have you near me
[Riff]
F#m
e|------------(2)-|

b|------------(2)-|

g|------------(2)-|

D|------------(4)-|

A|------7--6--(4)-|

E|---7--------(2)-|

[Estribillo]
F#m C#m
Bright are the stars that shine
F#m C#m
Dark is the sky
F#m C#m
I know this love of mine
A B
will never die
E
And I love her
[Solo]
Gm Dm Gm Dm Gm Dm
E|----------------------------------------------------------------|

B|----------------------------------------------------------------|

G|-----------9--7/10---------------9--9\7-----------------9--7/10-|

D|--5--7--8---------------5--7--8----------------5--7--8----------|

A|----------------------------------------------------------------|

E|----------------------------------------------------------------|

Bb C7 F Gm
E|------------------------------------------------------------|

B|------------------------------------------------------------|

G|--10--7-----------------------------------------------------|

D|---------8--7--7\5--------------/7--------------------------|

A|-----------------------5--3--5--------3-3-------------------|

E|-------------------------------------------5--3--1--1/3-----|

[Estrofa]
Gm Dm
Bright are the stars that shine
Gm Dm
Dark is the sky
Gm Dm
I know this love of mine
Bb C7
Will never die
F
And I love her
[Solo]
Gm F Gm Dm
e|----------------------------------------------------------------|

b|----------------------------------------------------------------|

g|----------------------------------------------------------------|

D|----------------------------------------------------------------|

A|------8--7--5---------8--7--5---------8--7--5--------8--7--5----|

E|---8---------------8---------------8--------------8-------------|

Este sitio usa cookies