Blackbird

Para añadir a una lista personal debes
ó

The Beatles

Versión
estudio
publicado por
iri
Tono
A-
A+
Deslizar
A -> La
Video
Acordes
Traducción
	 
[Riff]
G Am7 G/B G
E|-------------------------------------------|

B|-0-----1-----3----3/12---------12------12--|

G|----0-----0-----0-------0-0--------0-------|

D|-------------------------------------------|

A|-------0-----2----2/10~-----10~--------10~-|

E|-3-----------------------------------------|

[Intro]
[G - Am7 - G/B - G]
[Estrofa]
G Am7 G/B G*
Blackbird singing in the dead of night
C C#dim D D#(b5) Em Eb
Take these broken wings and learn to fly
D Dbdim C Cm
All your life
G/B A7 C/D G
You were only waiting for this moment to arise.
[Puente]
C G/B A7 C/D G
[Riff]
C G/B A7 C/D Am G
e|--------------------------------------------------------|

b|-5----3-----2--------2----1--------1------0--------0----|

g|----0----0-----0-0-----0-----0-0-----0-------0-0-----0--|

D|--------------------------0------0----------------------|

A|-3----2-----0------0------------------------------------|

E|------------------------------------------3------3------|

[Estribillo]
G Am7 G/B G*
Blackbird singing in the dead of night
C C#dim D D#(b5) Em Eb
Take these sunken eyes and learn to see
D Dbdim C Cm
All your life
G/B A7 C/D G
You were only waiting for this moment to be free
[Estribillo]
F Em Dm C Gm/Bb C
Black-bird, fly
F Em Dm C Gm/Bb A7
Black-bird, fly
C/D G Am7 G/B
Into the light of the dark black night
[Riff]
e|----------------------------------------------------3----------5----|

b|-0-----1-----3----3/12---------12------11/12---5----------7---------|

g|----0-----0-----0-------0-0--------0-0------------0----0-----0----0-|

D|--------------------------------------------------------------------|

A|-------0-----2----2/10~-----10~--------9-/10~--3----4-----5----6----|

E|-3------------------------------------------------------------------|

e|-----------------------------------3----------------------------------------------|

b|-8--------8----8--------8-----7----------5--------5----4--------4----3--------3---|

g|----0-0-----0-----0-0-----0------0----0-----0-0-----0-----0-0-----0-----0-0-----0-|

D|----------------------------------------------------------------------------------|

A|-7------7------6------6-------5----4-----3------3------3------3------2------2-----|

E|----------------------------------------------------------------------------------|

e|-----------------------------------------|

b|2--------2----1--------1----0--------0---|

g|---0-0-----0-----0-0-----0-----0-0-----0-|

D|--------------0------0-------------------|

A|0------0---------------------------------|

E|----------------------------3------3-----|

[Estribillo]
F Em Dm C Gm/Bb C
Black-bird, fly
F Em Dm C Gm/Bb A7
Black-bird, fly
C/D G Am7 G/B
Into the light of the dark black night
[Riff]
e|---------------------------------------------------------------------------------|

b|-0-----1-----3----3/12---------12--------11/12----------12---12----------13-12---|

g|----0-----0-----0-------0-0--------0------------0-0--------0-----0-0-------------|

D|---------------------------------------------------------------------------------|

A|-------0-----2----2/10~-----10~---------9-/10~-----10~------10~-----10~-12-10----|

E|-3-------------------------------------------------------------------------------|


e|------------------------------------------|

b|-0---1---3---5---3---2----1---------1-----|

g|---0---0---0---0---0---0-----0-0------0---|

D|--------------------------0-------0-------|

A|-----0---2---3---2---0--------------------|

E|-3----------------------------------------|

[Estrofa]
G Am7 G/B G*
Blackbird singing in the dead of night
C C#dim D D#(b5) Em Eb
Take these broken wings and learn to fly
D Dbdim C Cm
All your life
G/B A7 C/D G
You were only waiting for this moment to arise
C G/B A7 C/D G
You were only waiting for this moment to arise
C G/B A7 C/D G
You were only waiting for this moment to arise.
Este sitio usa cookies