Versión
estudio
publicado por
iri
Tono
A-
A+
Deslizar
A -> La
Video
Acordes
Traducción
	 
[Intro]
[A - E] x2
[Riff]
A E

e|-----5---------4---|

B|-------------5-----|

G|-6-------6h7---4---| x2

D|-------------------|

A|-0-----------------|

E|---------------0---|

[Estrofa]
A E/G# F#m A7/G
There are places I'll remember
D Dm A
All my life though some have changed
A E F#m A7/G
Some forever not for better
D Dm A
Some have gone and some remain.
[Puente]
F#m D
All these places have their moments
G A
With lovers and friends I still can recall
F#m B
Some are dead and some are living
Dm A
In my life I've loved them all.
[Riff]
A E
e|-----5---------4-----------------|

B|-------------5-------------------|

G|-6-------6h7---4-----------------|

D|---------------------------------|

A|-0-------------------------------|

E|---------------0-----------------|

[Estrofa]
A E F#m A7/G
But of all these friends and lovers
D Dm A
There is no one compares with you
A E F#m A7/G
And these memories lose their meaning
D Dm A
When I think of love as something new.
[Puente]
F#m D
Though I know I'll never lose affection
G A
For people and things that went before
F#m B
I know I'll often stop and think about them
Dm A
In my life I love you more.
[Solo]
[ A - E - F#m - A7/G - D - Dm - A] x2
[Puente]
F#m D
Though I know I'll never lose affection
G A
For people and things that went before
F#m B
I know I'll often stop and think about them
Dm A
In my life I love you more
[Riff]
A E
e|-----5---------4-----------------|

B|-------------5-------------------|

G|-6-------6h7---4-----------------|

D|---------------------------------|

A|-0-------------------------------|

E|---------------0-----------------|

[Puente]
Dm
In my life ... I love you MORE
[Riff]
A E E7 A
e|-----5---------4----------4-2-4---5-|

B|-------------5-----------3----------|

G|-6-------6h7---4--------4---------6-|

D|-----------------------2------------|

A|-0--------------------------------0-|

E|---------------0--------------------|

Este sitio usa cookies