Bancate ese defecto

Per aggiungere un elenco personale è necessario effettuare il
o

Charly García

Versione
studio
pubblicato da
iri
Tono
A-
A+
Scorrere
A -> La
Video
Accordi
Traduzione
	 
[Intro]
G - D/F# - Em - G/B - A7 - Bm7 - B7/C - A/C#

D+ - D+/E - D+/F - D+/F# - G - Am7 - Gdim - G

G - D/F# - Em - G/B - A7 - Bm7 - B7/C - A/C#
D+ - D+/E - D+/F - D+/F#
[Versetto]
Gsus4
Están pa- sando demasiadas cosas raras
Gsus4
Para que todo pueda seguir tan normal
Gsus4
Descon-fío de tu cara de informador
C Bb
Y de tu instinto de supervivencia
[Versetto]
Gsus4
Hace tiempo que no leo ni veo nada
Gsus4
Porque me o- fende que todo esté tan mal
Gsus4
Y hasta las personas lindas me dan rabia
Y los chicos y las chicas no hacen
C Bb G F
Nada por cam-biar
[Ponte]
[G F] x 3
[Pre-Coro]
G D/F# Em G/B
Porque algún día se va a a brir esta trampa
A7 Bm7 B7/C A/C#
mor- tal
D+ D+/E D+/F D+/F#
Pero hasta en tonces lleva- rás en tu cara
G Am7 Gdim G
una sombra
G D/F# Em G/B
Y no pre- sumas más de ser un hu- mano
A7 Bm7 B7/C A/C#
nor mal
D+ D+/E D+/F D+/F#
Y no te hagas más el gil que el e- fecto
G Am7 Gdim G
te nombra.
[Coro]
Gsus4
Y yo te digo Hey, bancate ese defecto
Bb/C G F
No es culpa tuya si la nariz no hace juego en tu cara
Gsus4
Y yo te digo: Hey, bancate ese defecto
Bb/C
Aunque te a rregles las gomas nena,
Gsus4
Seguirás siendo i-gual… rara
[Tab]
e|-4--5----------------------|--5--4--3---2-3--------|

b|-4--5--4-5---------------3-|----------------2-3----|

g|-3--4------3-4-0-1-2-3-4---|--------0--------------|

D|-4--5----------------------|--3--4----------1-2----|

A|---------------------------|-----------------------|

E|---------------------------|---------------------3-|

e|-------------------------3-|-------------------------------------3-|

b|---3-2-1-----------3-4-5---|-------------------------------3-4-5---|

g|---------3-0---2-0---------|-3-0---0-0---0-3-0-4-0-5-2-3-4---------|

D|-0-----------2-------------|-----2-----3---------------------------|

A|---------------------------|---------------------------------------|

E|---------------------------|---------------------------------------|

[Versetto]
Gsus4
Muti lado, desnutrido, deformado
Gsus4
Ojo de vidrio mostra tu cicatriz
Gsus4
Mari neros maricones embolsados
Gsus C Bb
Bailan la danza de la inteligencia
[Versetto]
Gsus4
Están pa sando demasiadas cosas raras
Gsus4
Para que todo pueda seguir tan normal
Gsus4
Todo el mundo nos conoce por la cara
Gsus4 C Bb G
Todo el mundo se da cuenta por la for- ma de bai- lar
[Ponte]
[G F] x 3
[Intro]
G D/F# Em G/B A7 Bm7 B7/C A/C#
D+ D+/E D+/F D+/F# G Am7 Gdim G x 2
[Coro]
Gsus4
Y yo te digo Hey, bancate ese defecto
Bb/C
No es culpa tuya si la nariz no hace juego en tu cara
Gsus4
Y yo te digo Hey, bancate ese defecto
Bb/C Gsus4
Aunque te a- rregles las gomas nena, seguiras siendo i- gual…
Gsus4
rara… rara… rara
[Outro]
C D7 Bm7 Em C D4 D Em …
Questo sito utilizza i cookie