Amor amarillo

Per aggiungere un elenco personale è necessario effettuare il
o

Gustavo Cerati

Versione
studio
pubblicato da
iri
Tono
A-
A+
Scorrere
A -> La
Video
[Capo al 2]
Accordi
Traduzione
	 
[Intro]
A9 G/B Dsus4 D
e|---------------------| |--------2-3-2-|

b|--------0-----0------| |------------3-|

g|------2---------0----|x3 |------2-----2-|

D|----2-------0-----0--| |----0-------0-|

A|--0-------2----------| |--------------|

E|---------------------| |--------------|

[Versetto]
A9 G/B A9 G/B
Adentro tuyo
A9 G/B A9 G/B
caigo del sol
A9 G/B A9 G/B
Adentro tuyo
D Dsus4 D
es único, es único
[Tab]
E#7/9 E7/9 [D7/9 C#7/9] E#7/9 E7/9 A7/9
e|--------------------------|----------------|

b|----9----8-----7s6s7s6s7--|---9----8----14-|

g|----9----8-----7s6s7s6s7--|---9----8----14-|

D|----8----7-----6s5s6s5s6--|---8----7----13-|

A|--9----8-------7s6s7s6s7--|-9----8------14-|

E|--------------------------|----------------|

[Versetto]
A9 G/B
Cuerpos de luz
A9 G/B
corriendo en pleno cielo
A9 G/B A9 G/B
cristales de amor amarillo
A9 G/B
no dejaré que seas fría
A9 G/B
yo podría calentarte
A9 G/Bm [C - A/C# - D - B7]
para abandonarme y renacer
[Tab]
E#7/9 E7/9 [D7/9 C#7/9] E#7/9 E7/9 A7/9
e|--------------------------|----------------|

b|----9----8-----7s6s7s6s7--|---9----8----14-|

g|----9----8-----7s6s7s6s7--|---9----8----14-|

D|----8----7-----6s5s6s5s6--|---8----7----13-|

A|--9----8-------7s6s7s6s7--|-9----8------14-|

E|--------------------------|----------------|

[Versetto]
A9 G/B
Explosiones en tus ojos
A9 G/B
agujeros en la tierra
A9 G/B A9 G/B
y un verde profundo en el mar
A9 G/B
hay algo en el aire
A9 G/B
un detalle infinito
A9 G/Bm [C - A/C# - D - B7]
quiero que dure para siempre.
[Tab]
e|-0-- 0-0-0-0-0-|-0-0-0-0-0/0-0-0-0---0-0-0-0-0-----0-----0--0--|

b|-3/5-5-5-5-5-5-|-5-5-5-7-7/8-7-7b8r7-5-7-7-8/10b12-10b12-10-8--|

g|---------------|-----------------------------------------------|

D|---------------|-----------------------------------------------|

A|---------------|-----------------------------------------------|

E|---------------|-----------------------------------------------|

e|-0----------0---0-0-0-0-0-0-|---------------------|------------------------|

b|-10b12r10p8-8/7-5-7-5-4-5-7-|---------------------|------------------------|

g|----------------------------|-7-9-----9-9-----7-7-|-----9-11-11-13-9-9-7-7-|

D|----------------------------|-6-6-----7-7-----7-7-|-----6-9--9--9--7-7-7-7-|

A|----------------------------|-7-7-6/7-7-7-7h9-9-9-|---7---9--9--9--7-7-9-9-|

E|----------------------------|-0-------------------|-0----------------------|

e|------------------------------------------|

b|------------------------------------------|

g|------11p9--------7-----9p7------9-9-7-7--|

D|-----------9--------7-------7----7-7-7-7--|

A|---11--------11/9-----9-------9--7-7-9-9--|

E|-0----------------------------------------|

[Coro]
A9 G/B A9 G/B
Adentro tuyo
A9 G/B A9 G/B
caigo del sol
A9 G/B A9 G/B
Adentro tuyo
D Dsus4 D
y es único, es único
[Coro]
A9 G/B A9 G/B
Adentro tuyo
A9 G/B A9 G/B
caigo del sol
A9 G/B A9 G/B
Adentro tuyo
D Dsus4 D
y es único, es único
[Tab]
e|----------------------------------|-------

b|------9-9-9-----11-11-11---9-9-9--|---9-9---

g|--7---7-7-7-----11-11-11---9-9-9--|-7-7-7--

D|--6-------------------------------|-6-----

A|--7-------------9----------11-----|-7------

E|----------------------------------|-------

[Outro]
E F#-E-D#-E
y es único, es único
E F#-E-D#-E
y es único, es único
E F#-E-D#-E
y es único, es único
E F#-E-D#-E
y es único, es único
[Outro]
E - F# - E - D# - E


Questo sito utilizza i cookie