Lago en el cielo

Per aggiungere un elenco personale è necessario effettuare il
o

Gustavo Cerati

Versione
studio
pubblicato da
iri
Tono
A-
A+
Scorrere
A -> La
Video
Accordi
Traduzione
	 
[Riff]
Am7 G D/F#
e|------------------------------------------|

b|----10--10------8--8-----7--7----7--7-----|

g|------------------------------------------|

D|--10--10--10--9--9--9--7--7--7--7--7--7---| x2

A|------------------------------------------|

E|------------------------------------------|

[Intro]
[Cmaj7 - D - Cmaj7]x4
[Versetto]
Cmaj7/G D Cmaj7/G
Un lago en el cielo
D Cmaj7/G
quiero ser suave
D Cmaj7/G D/F# Cmaj7/G
para evitar tu dureza
D Cmaj7/G
apago tu fuego
D Cmaj7/G
enciende mi agua
D Cmaj7/G D/F#
puede que no haya certezas
[Coro]
Bm C D/F#
Vamos despacio
Bm C/G
para encontrarnos
Am D
el tiempo es arena en mis manos
Em Am D/F#
sé por tus marcas
Bm Am
cuanto has amado
C/G D/F#
más de lo que prometiste.
[Versetto]
Cmaj7 D Cmaj7/G
Hoy te apuré
D Cmaj7/G
(estaba tan sensible)
D/F# Cmaj7/G D/F#
son espejismos que aumentan la sed
Cmaj7/G D/F# Cmaj7/G D/F# Cmaj7/G
si adelanté no me hagas caso
D/F# Cmaj7/G
a veces no puedo con la soledad
[Coro]
Bm C D
Vamos despacio
Bm
para encontrarnos
C Am D
el tiempo es arena en mis manos
Em Am
sé por tus marcas
D Bm
cuanto has dejado
Am C D
para olvidar lo que hiciste
Am C D
sentir algo que nunca sentiste
[Riff]
Am7 G D/F#
e|------------------------------------------|

b|----10--10------8--8-----7--7----7--7-----|

g|------------------------------------------|

D|--10--10--10--9--9--9--7--7--7--7--7--7---| x3

A|------------------------------------------|

E|------------------------------------------|

[Ponte]
F C G G
Sos el paisaje más soñado
F C G G
y sacudiste las más sólidas tristezas
F C G
y respondiste cada vez que te he llamado
[Coro]
Bm C
Vamos despacio
D Bm
para encontrarnos
C Am D
el tiempo es arena en mis manos
Em Am
un lago en el cielo, oooh oh oh
D Bm
es mi regalo
Am C/G D
para olvidar lo que hiciste
Am C D
y sentir algo que nunca sentiste
Am
hacerte sentir
C/G D/F#
algo que nunca sentiste
[Ponte]
Am C/G Bm Bm

Am C/G Em Em


[Outro]
C/G G D/F#
C/G G D/F#
tu ru ru
C/G G D/F#
tu ru ru
C/G G D/F#
tu ru ru
C/G G D/F#
tu ru ru
C/G G D/F#
tu ru ru
C/G G D/F#
tu ru ru
C/G G D/F#
tu ru ru
Questo sito utilizza i cookie