Stairway To Heaven

Per aggiungere un elenco personale è necessario effettuare il
o

Led Zeppelin

Versione
studio
pubblicato da
iri
Tono
A-
A+
Scorrere
A -> La
Video
Accordi
Traduzione
	 
| / Slide up

| \ Slide down

| h Hammer-on

| p Pull-off

| b Bend

| r Release

[Intro]
e|-------5-7-----7-|-8-----8-2-----2-|-0---------0-----|-----------------|

b|-----5-----5-----|---5-------3-----|---1---1-----1---|-0-1-1-----------|

g|---5---------5---|-----5-------2---|-----2---------2-|-0-2-2---2-------|

D|-7-------6-------|-5-------4-------|-3---------------|-----------------|

A|-----------------|-----------------|-----------------|-2-0-0---0--/8-7-|

E|-----------------|-----------------|-----------------|-----------------|

e|---------7-----7-|-8-----8-2-----2-|-0---------0-----|-----------------|

b|-------5---5-----|---5-------3-----|---1---1-----1---|-0-1-1-----------|

g|-----5-------5---|-----5-------2---|-----2---------2-|-0-2-2-----------|

D|---7-----6-------|-5-------4-------|-3---------------|-----------------|

A|-0---------------|-----------------|-----------------|-2-0-0-------0-2-|

E|-----------------|-----------------|-----------------|-----------------|

e|-------0-2-----2-|-0-----0----------|---------3-----3-|-3p2-2-2---------|

b|-----------3-----|---1-----0h1------|-1-----1---0-----|-----3-3---------|

g|-----0-------2---|-----2-------2----|---0---------0---|-----2-2---------|

D|---2-----0-------|-3----------------|-----2-----------|-0---0-0---------|

A|-3---------------|---------0----0-2-|-3---------------|-------------0-2-|

E|-----------------|------------------|---------3-------|-----------------|

e|---------2-----2-|-0-----0----------|---------------2-|-0-0-0-----------|

b|-------1---3-----|---1-----0h1------|-------1-----3---|-1-1-1-----------|

g|-----0-------2---|-----2-------2----|-----0-----2-----|-2-2-2-----------|

D|---2-----0-------|-3----------------|---2-----0-------|-3-3-3-----------|

A|-3---------------|---------0----0-2-|-3---------------|-----------------|

E|-----------------|------------------|-----------------|-----------------|

[Versetto]
[Tab]
e|-------5-7-----7-|-8-----8-2-----2-|-0---------0-----|-----------------|

b|-----5-----5-----|---5-------3-----|---1---1-----1---|-0-1-1-----------|

g|---5---------5---|-----5-------2---|-----2---------2-|-0-2-2-----------|

D|-7-------6-------|-5-------4-------|-3---------------|-----------------|

A|-----------------|-----------------|-----------------|-2-0-0-----------|

E|-----------------|-----------------|-----------------|-----------------|

e|-------5-7-----7-|-8-----8-2-----2-|-0---------0-----|-----------------|

b|-----5-----5-----|---5-------3-----|---1---1-----1---|-0-1-1-----------|

g|---5---------5---|-----5-------2---|-----2---------2-|-0-2-2-----------|

D|-7-------6-------|-5-------4-------|-3---------------|-----------------|

A|-----------------|-----------------|-----------------|-2-0-0-------0-2-|

E|-----------------|-----------------|-----------------|-----------------|

e|---------2-----2-|-0-----0---------------|---------3-----3-|-3p2-2-2-------|

b|-------1---3-----|---1----1--0-1---------|-1---1-1---0-----|-3---3-3-------|

g|-----0-------2---|-----2---------2-------|---0-0-------0---|-2-----2-------|

D|---2-----0-------|-3---------------------|-----2-----------|-0-----0-------|

A|-3---------------|-----------0------0-2--|-3---------------|-----------0-2-|

E|-----------------|-----------------------|---------3-------|---------------|

e|-------0-2-----2-|-0-----------------|---------2-----2-|-0-0-0-----------|

b|-----------3-----|---1--1--0-1-------|-1-----1---3-----|-1-1-1-----------|

g|-----0-------2---|-----2-------2-----|---0---------2---|-2-2-2-----------|

D|---2-----0-------|-3-----------------|-----2---0-------|-3-3-3-----------|

A|-3---------------|---------------0-2-|-3---------------|-----------------|

E|-----------------|-------------------|-----------------|-----------------|

e|-------5-7-----7-|-8-----8-2-----2-|-0---0-----0-----|-----------------|

b|-----5-----5-----|---5-------3-----|---1---1-----1---|-0-1-1-----------|

g|---5---------5---|-----5-------2---|---------------2-|-0-2-2-----------|

D|-7-------6-------|-5-------4-------|-3---------------|-----------------|

A|-----------------|-----------------|-----------------|-2-0-0---0--/8-7-|

E|-----------------|-----------------|-----------------|-----------------|

e|--------5-7---7---|----8-------2------|----0-------0----|-----------------|

b|-----------5-5-5--|---5-5-----3-3-----|---1--1----1-1---|-0-1-1-------3---|

g|------5-----5---5-|--5---5---2---2--2-|--2----2--2---2--|-0-2-2-------0---|

D|----7-----6-------|-5-----5-4-----4---|-3-------3-----3-|-------------0---|

A|-0-0--------------|-------------------|-----------------|-2-0-0-------2---|

E|------------------|-------------------|-----------------|-----------------|

[Coro]
[Tab]
e|-3---3-3-3--3--0-0-|-2-------2-------|-3--3-3-3--3--0-0---7-|--5---3---5----|

b|-1---1-1-1--1--1-3-|-3--3--3---3-0-0-|-1--1-1-1--1--1-1---8-|--7---5---7----|

g|-2---2-2-2--2--2-2-|-2-----------0-0-|-2--2-2-2--2--2-2---9-|--7---5---7----|

D|-2---2-2-2--2--2---|---0-------------|-2--2-2-2--2--2-2---0-|-------------0-|

A|-------------------|-----------------|----------------------|-------------0-|

E|-------------------|-----------------|----------------------|---------------|

e|-3---3-3-3--3--0-0-|-2-------2-------|-3--3-3-3--3--0-0---7-|--5---3---5----|

b|-1---1-1-1--1--1-3-|-3--3--3---3-0-0-|-1--1-1-1--1--1-1---8-|--7---5---7----|

g|-2---2-2-2--2--2-2-|-2-----------0-0-|-2--2-2-2--2--2-2---9-|--7---5---7----|

D|-2---2-2-2--2--2---|---0-------------|-2--2-2-2--2--2-2---0-|-------------0-|

A|-------------------|-----------------|----------------------|-------------0-|

E|-------------------|-----------------|----------------------|---------------|

e|------------------|------------------------|-----------------0--|--0--------|

b|---------1------3-|-0h1----------1---------|-------1---------0--|--1--------|

g|-------0------0---|-----2-------2----------|-----0--------0--2--|--2--------|

D|-----2------0-----|---------2--------------|---2--------0----3--|--2--------|

A|-0h3------2-------|-------0----------0--2--|-3--------2------3--|--0---0-2--|

E|------------------|------------------------|-----------------1--|-----------|

e|----------------|--------------------|----------------0-|--0------|---------|

b|-------1------3-|-0h1---------1------|-------1--------1-|--1------|----1---3|

g|-----0------0---|-----2-----2--------|-----0-------0--2-|--2------|---0---0-|

D|---2------0-----|---------2----------|---2-------0----3-|--2------|--2---0--|

A|-3------2-------|-------0------0--2--|-3-------2------3-|--0--0-2-|-3---2---|

E|----------------|--------------------|----------------1-|---------|---------|

e|-3--3-3-3--3--0-0---7-|--5---3---5----|-3--3-3-3--3--0-0-|-2-----2-2-2-2-0-0-|

b|-1--1-1-1--1--1-1---8-|--7---5---7----|-1--1-1-1--1--1-3-|-3-----3-3-3-3-0-0-|

g|-2--2-2-2--2--2-2---9-|--7---5---7----|-2--2-2-2--2--2-0-|-2-----2-2-2-2-0-0-|

D|-2--2-2-2--2--2-2---0-|----------0----|-2--2-2-2--2--2---|----0--0-----------|

A|----------------------|-------------0-|------------------|-------------------|

E|----------------------|---------------|------------------|-------------------|

e|-3--3-3-3--3--0-0---7-|--5---3---5----|

b|-1--1-1-1--1--1-1---8-|--7---5---7----|

g|-2--2-2-2--2--2-2---9-|--7---5---7----|

D|-2--2-2-2--2--2-2---0-|----------0----|

A|----------------------|-------------0-|

E|----------------------|---------------|

[Tab]
e|------------------|------------------------|-----------------0--|--0--------|

B|---------1------3-|-0h1----------1---------|-------1---------1--|--1--------|

G|-------0------0---|-----2-------2----------|-----0--------0--2--|--2--------|

D|-----2------0-----|---------2--------------|---2--------0----3--|--2--------|

A|-0h3------2-------|-------0----------0--2--|-3--------2------3--|--0---0-2--|

E|------------------|------------------------|-----------------1--|-----------|

e|----------------|-3--3-3-3--3--0-0-|-2-----2-2-2-2-----|-3--3-3-3--3--0-7-|

B|-------1------0-|-1--1-1-1--1--1-3-|-3-----3-3-3-3-0-0-|-1--1-1-1--1--1-8-|

G|-----0------0---|-2--2-2-2--2--0-0-|-2--2--2-2-2-2-0-0-|-0--0-2-0--0--0-9-|

D|---2------0-----|-2--2-2-2--2------|----0--0-----------|-2--2-2-2--2------|

A|-3------2-------|------------------|-------------------|------------------|

E|----------------|------------------|-------------------|------------------|

e|-5--3--5--|-3--3-3-3--3--0-0-|-2-----2-2-2-2-0-0-|-3--3-3-3--3--0-7-|-5--3--5-|

B|-7--5--7--|-1--1-1-1--1--1-3-|-3--3--3-3-3-3-0-0-|-1--1-1-1--1--1-8-|-7--5--7-|

G|-7--5--7--|-2--2-2-2--2--0-0-|-2--2--2-2-2-2-0-0-|-0--0-2-0--0--0-9-|-7--5--7-|

D|----------|-2--2-2-2--2------|-------------------|-2--2-2-2--2------|---------|

A|--------0-|------------------|-------------------|------------------|--------0|

E|----------|------------------|-------------------|------------------|---------|

e|------------------|------------------------|-----------------0--|--0--------|

B|---------1------3-|-0h1----------1---------|-------1---------1--|--1--------|

G|-------0------0---|-----2-------2----------|-----0--------0--2--|--2--------|

D|-----2------0-----|---------2--------------|---2--------0----3--|--2--------|

A|-0h3------2-------|-------0----------0--2--|-3--------2------3--|--0---0-2--|

E|------------------|------------------------|-----------------1--|-----------|

e|-----3--------3---|--2---------0-2--|-3----0-2--3--0-2--|---3-3-2---------|

B|---5--------3---4-|--3-------3-3-3--|-3--3-3-3--3--3-3--|---3-3-3-3-------|

G|-5-----5--4-------|--2-------2-2-2--|-2--2-2-2--2--2-2--|---2-2-2-0-------|

D|------------------|-----------------|-0--0-0-0--0--0-0--|---0-0-0-2-------|

A|------------------|-----------------|-------------------|---------3-------|

E|------------------|-----------------|-------------------|-----------------|

e|---2-2-2---|---2--2-2--0-0-0-2-|-3-0-2--0-2-|-3-3-3-3-|---2--2-2-0-0-|-0-2-2-0-|

B|-3-3-3-3-1-|-1-3--3-3--3-3-3-3-|-3-3-3--3-3-|-3-3-3-3-|-3-3--3-3-3-3-|-3-3-3-3-|

G|-0-0-0-0-0-|-0-0--0-0------2-2-|-2-2-2--2-2-|-2-2-2-0-|-0-0--0-0-0-0-|-0-0-0-0-|

D|---------2-|-----------0-0-0-0-|-0-0-0--0-0-|-0-0-0-2-|-2------------|---------|

A|---------3-|-------------------|------------|-------3-|--------------|---------|

E|-----------|-------------------|------------|---------|--------------|---------|

[Solo]
Am Am7 Fmaj7
e|----------5---------------|------------------8--8-|

b|------------8-5-----------|-------------8b10------|

g|---7b9----------7-5---7p5-|-----------------------|

D|--------------------7-----|-7p5-------------------|

A|--------------------------|----8------------------|

E|--------------------------|-----------------------|

Am Am7 Fmaj7
e|--8b10---8--5-------8--10-|-8-----------------------5-------|

b|---------------8b10-------|---10-8----8h10------------8-5---|

g|--------------------------|--------10-----------7b9-------7-|

D|--------------------------|---------------------------------|

A|--------------------------|---------------------------------|

E|--------------------------|---------------------------------|

Am Am7 Fmaj7
e|----------------------------|----5------------------------|

b|----------------------------|------8-5--------------------|

g|-5---7p5------------5---5-5-|----------7-5--7p5-----------|

D|---7-----7-5---5-7----7-----|-5------------7----7p5-7p5---|

A|-------------7--------------|---------------------------8-|

E|----------------------------|-----------------------------|

Am Am7
e|---------------------------------------------|

b|------------------------------------------13-|

g|---------10-------------------12----12-14----|

D|------10----12-10----10-12/14----14----------|

A|-8/12-------------12-------------------------|

E|---------------------------------------------|

Fmaj7
e|------------------------15b17-15-12----------------|

b|--15b17-15-13--15-13-13-------------15b17-15-13----|

g|------------------------------------------------14-|

D|---------------------------------------------------|

A|---------------------------------------------------|

E|---------------------------------------------------|

Am Am7
e|----------------------------------------------------------------------------|

b|-13-15b17r15p13----13-15b17r15p13----13---15b17r15p13----13--15b17r15p13----|

g|----------------14----------------14------------------14-----------------14-|

D|----------------------------------------------------------------------------|

A|----------------------------------------------------------------------------|

E|----------------------------------------------------------------------------|

Fmaj7
e|----------------------------------------------------------------------------|

b|-13-15b17r15p13----13--15b17r15p13----13--15b17r15p13----13--15b17r15p13----|

g|----------------14-----------------14-----------------14-----------------14-|

D|----------------------------------------------------------------------------|

A|----------------------------------------------------------------------------|

E|----------------------------------------------------------------------------|

v
e|------------------------------------------15b17--|

b|-13--15b17r15p13----13---15b17r15p13----13-------|

g|-----------------14------------------14----------|

D|-------------------------------------------------|

A|-------------------------------------------------|

E|-------------------------------------------------|

Fmaj7
e|-b17r15-12---12--------------------------------15--|

b|-----------15---15--13----13-15-13---13--15b17-----|

g|-----------------------14----------14--------------|

D|---------------------------------------------------|

A|---------------------------------------------------|

E|---------------------------------------------------|

Am Am7 Fmaj7
e|-----------------------------|-----------17----------------------------------|

b|-15b17r15p13----13\12--13\10-|--------20----20-20----------------------------|

g|-------------14--------------|--19b21-21----------19b21r19p17---19--17----19-|

D|-----------------------------|--------------------------------19-------19----|

A|-----------------------------|-----------------------------------------------|

E|-----------------------------|-----------------------------------------------|

Am Am7 Fmaj7 Am Am7
e|--------------------|--------------------------------|--------------|

b|--------------------|--------------------------------|--------------|

g|-19b21--13\12 13\10-|--14b17--14b17-14--12--14--12-12|b14-----------|

D|--------------------|--------------------------------|--------------|

A|--------------------|--------------------------------|--------------|

E|--------------------|--------------------------------|--------------|

Fmaj7 Am Am7
e|-----------------------------------|----------8\7--8\5--|

b|-----------------------------------|--------------------|

g|-10b14----10b12r10-9-7----7--------|-7-9-7--------------|

D|-----------------------10----10----|-------10-7---------|

A|-----------------------------------|--------------------|

E|-----------------------------------|--------------------|

Fmaj7
e|----20-p17------20-p17------20-p17------20-p17------20-p17-----20b22-|

b|-17--------17----------17----------17----------17----------17--------|

g|---------------------------------------------------------------------|

D|---------------------------------------------------------------------|

A|---------------------------------------------------------------------|

E|---------------------------------------------------------------------|

[Outro]
[Tab]
Am G F G Am G F G
e|-5------------3----------------|-1--3-|-5------------3-------------|--1--3-|

b|-5------------3----------------|-1--3-|-5------------3-------------|--1--3-|

g|-5------------4----------------|-2--4-|-5------------4-------------|--2--4-|

D|-7------------5----------------|-3--5-|-7------------5-------------|--3--5-|

A|-7------------5----------------|-3--5-|-7------------5-------------|--3--5-|

E|-5------------3----------------|-1--4-|-5------------3-------------|--1--4-|

Am G F G Am G
e|-5------------3-------------|-1--3--|-5------------3----------|

b|-5------------3-------------|-1--3--|-5------------3----------|

g|-5------------4-------------|-2--4--|-5------------4----------|

D|-7------------5-------------|-3--5--|-7------------5----------|

A|-7------------5-------------|-3--5--|-7------------5----------|

E|-5------------3-------------|-1--4--|-5------------3----------|

F G Am G
e|--1-----------------------3--|-------------------------------|

b|--1-----------------------3--|-------------------------------|

g|--2-----------------------4--|-------------------------------|

D|--3-----------------------5--|-------------------------------|

A|--3----------3--5h7--5--3-5--|-------------------------------|

E|--1----1-3h5--------------3--|-5---5--------3--3-------------|

Am G F G Am G
e|---------------------5------------3-------------|-1--3--|-5------3----------|

b|---------------------5------------3-------------|-1--3--|-5------3----------|

g|---------------------5------------4-------------|-2--4--|-5------4----------|

D|---------------------7------------5-------------|-3--5--|-7------5----------|

A|-------3--5h7--5--3--7------------5-------------|-3--5--|-7------5----------|

E|-1-3h5---------------5------------3-------------|-1--4--|-5-5----3--3-------|

F G Am G Fmaj7
e|--1------------------------|----------0-|---0-0-0-0-----|

b|--1------------------------|----------1-|---1-1-1-1-----|

g|--2------------------------|----------2-|---2-2-2-2-----|

D|--3------------------------|----------3-|---3-3-3-3-----|

A|--3----------3--5h7--5--3--|------------|---------------|

E|--1----1-3h5---------------|-5-5--3-3-1-|-1----------5-5|

Am G Fmaj7 Am Am7/G Fmaj7
e|-----------0-|-0-0-0-0------|--------8-10-----|-------------------------|

b|-----------1-|-1-1-1-0------|-8/10--------10--|--8h10p10----------3-3---|

g|-----------2-|-2-2-2-0------|-----------------|-----------------5b7-2---|

D|-----------3-|-3-3-3-0------|-----------------|---------------------3---|

A|-------------|--------------|-----------------|-------------------------|

E|-5-5--3-3--1-|--------------|-----------------|-------------------------|

Am Am7/G Fmaj7 Am Am7/G
e|----------------------0--|-------------------|-------------------------|

b|----5-------8------10-3--|-----13-------12---|-----13------12------13__|

g|--7b9----10b12--12b14-0--|--15b17----14b16---|--15b17---14b16---15b17__|

D|----------------------0--|-------------------|-------------------------|

A|-------------------------|-------------------|-------------------------|

E|-------------------------|-------------------|-------------------------|

Fmaj7
e|-----------------------------------------|

b|_13------12-------13------15-------------|

g|_17---14b16----15b17---17b19-------------|

D|-----------------------------------------|

A|-----------------------------------------|

E|-----------------------------------------|

Am Am7/G Fmaj7
e|----------------------|-0---------------------------------------------|

b|----13------12-----15-|-1----13---------------------------------------|

g|-15b17---14b16--17b19-|-2-15b17---------------------------------------|

D|----------------------|-3---------------------------------------------|

A|----------------------|-----------------------------------------------|

E|----------------------|-----------------------------------------------|

Questo sito utilizza i cookie