Aeroplane

Per aggiungere un elenco personale è necessario effettuare il
o

Red Hot Chili Peppers

Versione
studio
pubblicato da
rafah
Tono
A-
A+
Scorrere
A -> La
Video
Accordi
Traduzione
	 
[Intro]
C4(7) C7(9)
E|-3-----------------3----------------------|

B|-6-----------------3----------------------|

G|-3-----------------3----------------------|

D|-3-----------------5----------------------|

A|-3-----------------3----------------------|

E|------------------------------------------|

C4(7/13) C
E|-5---6------------------------------------|

B|-3------3----------5----------------------|

G|-3---------3-------5----------------------|

D|-3-----------------5----------------------|

A|-3-----------------3----------------------|

E|------------------------------------------|

C4(7/9) C9
E|-6---5-------------3----------------------|

B|-3------6----------3----------------------|

G|-3---------3-------5----------------------|

D|-3-----------------5----------------------|

A|-3-----------------3----------------------|

E|------------------------------------------|

C4(7/9) C
E|-3----------------------------------------|

B|-3-----------------5----------------------|

G|-3-----------------5----------------------|

D|-3-----------------5----------------------|

A|-3-----------------3----------------------|

E|------------------------------------------|

[Tab]
[Chorus]
Gm7(11)
E|-6-6-6-6-6-6-6-6-6-6-6-6-6-6-6-6----------|

B|-6-6-6-6-6-6-6-6-6-6-6-6-6-6-6-6----------|

G|-5-5-5-5-5-5-5-5-5-5-5-5-5-5-5-5----------|

D|------------------------------------------|

A|------------------------------------------|

E|------------------------------------------|

C7
|E|-6-6-6-6-6-6-6-6-6-6-6-6-6-6-6-6----------  |B|-5-5-5-5-5-5-5-5-5-5-5-5-5-5-5-5----------  |G|-5-5-5-5-5-5-5-5-5-5-5-5-5-5-5-5----------  |D|------------------------------------------  |A|------------------------------------------  |E|------------------------------------------
[Coro]
Gm7(11)
I like pleasure spiked with pain
C7
And music is my aeroplane
Gm7(11) C7
It's my aeroplane
Gm7(11)
Songbird sweet and sour Jane
C7
And music is my aeroplane
Gm7(11) C7
It's my aeroplane
[Tab]
E|-----------------------------------------------------|

B|-----------------------------------------------------|

G|-----------------------------------------------------| (3x)

D|-8--8-8-8-8-8-8-x-x------8---------------------------|

A|--------------------8h10----10-8---------------------|

E|-----------------------------------------------------|

E|-----------------------------------------------------|

B|-----------------------------------------------------|

G|--------------------------10-x-x-10-12---------------|

D|-8--8-10-x-x-10-12-x-x-12----------------------------|

A|-----------------------------------------------------|

E|-----------------------------------------------------|

[Versetto]
Gm7(11) C7
Pleasure spiked with pain
Gm7(11)
That motherfucker's always
C7
Spiked with pain
[Tab]
Gm7
E|-18---x-18---------18---x-18--------------|

B|-18---x-18---------18---x-18--------------|

G|------------------------------------------|

D|------------------------------------------|

A|------------------------------------------|

E|------------------------------------------|

C7
E|-18---x-18---------18---x-18--------------|

B|-17---x-17---------17---x-17--------------|

G|------------------------------------------|

D|------------------------------------------|

A|------------------------------------------|

E|------------------------------------------|

[Versetto]
Gm7 C7
Looking in my own eyes hello
Gm7 C7
I can't find the love I want
Gm7 C7
Someone better slap me
Gm7
Before I start to rust
C7
Before I start to decompose
Gm7 C7
Looking in my rear view mirror
Gm7 C7
Looking in my rear view mirror
Gm7 C7
I can make it disappear
Gm7 C7
I can make it disappear

Have no fear
[Coro]
Gm7(11)
I like pleasure spiked with pain
Gm7(11)
I like pleasure spiked with pain
Gm7(11) C7
It's my aeroplane
Gm7(11)
Songbird sweet and sour Jane
C7
And music is my aeroplane
Gm7(11) C7
It's my aeroplane
[Tab]
E|-----------------------------------------------------|

B|-----------------------------------------------------|

G|-/5--5-5-5/7--7-7-7/10--10-10-109--9-9-9/12--12-12---|

D|-----------------------------------------------------|

A|-----------------------------------------------------|

E|-----------------------------------------------------|

E|-----------------------------------------------------|

B|-----------------------------------------------------|

G|-129-9-9-9/10--10-10-107--7-7-7/9--9-9-95--5-5-------|

D|-----------------------------------------------------|

A|-----------------------------------------------------|

E|-----------------------------------------------------|

E|-----------------------------------------------------|

B|-----------------------------------------------------|

G|-5/7--7-7-72?2/3-3h5p3h5p...----3h5p3----------------|

D|---------------------------------------5p3-5~--------|

A|-----------------------------------------------------|

E|-----------------------------------------------------|

[Versetto]
Gm7(11) C7
Pleasure spiked with pain
Gm7(11)
That motherfucker's always
C7
Spiked with pain
[Versetto]
Gm7 C7
Sitting in my kitchen hey girl
Gm7 C7
I'm turning into dust again
Gm7 C7
My melancholy baby
Gm7
The star of mazzy must
C7
Push her voice inside of me
Gm7 C7
I'm overcoming gravity
Gm7 C7
I'm overcoming gravity
Gm7 C7
It's easy when you're sad to be
Gm7 C7
It's easy when you're sad

Sad like me
[Coro]
Gm7(11)
I like pleasure spiked with pain
C7
And music is my aeroplane
Gm7(11) C7
It's my aeroplane
Gm7(11)
Songbird sweet and sour Jane
C7
And music is my aeroplane
Gm7(11) C7
It's my aeroplane
[Tab]
Bridge:

(Part 1 - 5x)

Eb9 F6
E|------------------------------------------|

B|-6-6-6-6-6-6-6-6-6-3-3-3-3-3-3-3----------|

G|-3-3-3-3-3-3-3-3-3-3-5-5-5-5-5-5----------|

D|-3-3-3-3-3-3-3-3-3-3-3-3-3-3-3-3----------|

A|------------------------------------------|

E|------------------------------------------|

Gm
E|------------------------------------------|

B|-x-x-3----3----3--------------------------|

G|-x-x-3----3----3--------------------------|

D|-x-x-5----5----5--------------------------|

A|------------------------------------------|

E|------------------------------------------|

[Ponte]

Pleasure spiked with pain

Just one note

Could make me float

Could make me float away

One note from

The song she wrote

Could fuck me where I lay

Just one note

Could make me choke

One note that's not a lie
[Tab]
(Part 2)
C4(7) C4(7/9)
E|------------------------------------------|

B|-6-6-6-6-6-6-6-6-6-3-3-3-3-3-3-3----------|

G|-3-3-3-3-3-3-3-3-3-3-5-5-5-5-5-5----------|

D|-3-3-3-3-3-3-3-3-3-3-3-3-3-3-3-3----------|

A|------------------------------------------|

E|------------------------------------------|

Gm
E|------------------------------------------|

B|-x-x-3----3----3--------------------------|

G|-x-x-3----3----3--------------------------|

D|-x-x-5----5----5--------------------------|

A|------------------------------------------|

E|------------------------------------------|

[Ponte]

Just one note

Could cut my throat

One note could make me die
[Coro]
Gm7(11)
I like pleasure spiked with pain
C7
And music is my aeroplane
Gm7(11) C7
It's my aeroplane
Gm7(11)
Songbird sweet and sour Jane
C7
And music is my aeroplane
Gm7(11) C7
It's my aeroplane

Thats spiked with pain
[Tab]
Final:


E|------------------18b20--b20r18p15----15-------------|

B|-18b20--b20r18p15------------------18----18b20~-r18p-|

G|-----------------------------------------------------|

D|-----------------------------------------------------|

A|-----------------------------------------------------|

E|-----------------------------------------------------|

E|-----------------------------------------------------|

B|-15--------------------------------------------------|

G|----15~------------15--------------------------------|

D|----------17p15-17----17-15-17p15----15--------------|

A|----------------------------------17----15~~---------|

E|-----------------------------------------------------|

E|-----------------------------------------------------|

B|-----------------------------------------------------|

G|-----------------------------------------------------|

D|-----------------------------------------------------|

A|-15b~~--br15p13-15b~~r15p13--------------------------|

E|----------------------------15~----------------------|

E|-----------------------------------------------------|

B|-----------------------------------------------------|

G|-----------------------------------------------------|

D|------8b---------8-10-8b---------8b------------------|

A|-8h10-------8h10------------8h10---------------------|

E|-----------------------------------------------------|

Questo sito utilizza i cookie