De Música Ligera

Per aggiungere un elenco personale è necessario effettuare il
o

Soda Stereo

Versione
studio
pubblicato da
iri
Tono
A-
A+
Scorrere
A -> La
Video
Accordi
Traduzione
	 
[Intro]
(Bm G D A) x6
[Versetto]
Bm G D A Bm G D A
Ella durmió, al calor de las masas
Bm G D A Bm G D A
Y yo desperté, queriendo soñarla
B5 B/A B (G D D)
Algún tiempo atrás,
B5 B/A B (G D D)
pensé en escribiiiir le
B5 B/A B (G D D)
que nun ca sortee
B5 B/A B (G D A)
las trampas del amor.
[Coro]
Bm G D
De aquel amor
A Bm G D A
De música ligera
Bm G D
Nada nos libra
A Bm G D A
Nada más queda.
[Solo]
e|-----------------------| -------------------------|------------------------|

b|-----------------------| -------------------------|------------------------|

g|-----------------------| -------------------------|------------------------|

D|-----------------------| -------------------------|------------------------|

A|--------4--5-----------| -------4--5--4-----------|---------0h2------------|

E|--7--7-----------------|----------------7--5--2--|---------------------5--|


e|------------------------|-----------------------| -------------------------|

b|------------------------|-----------------------| -------------------------|

g|------------------------|-----------------------| -------------------------|

D|------------------------|-----------------------| -------2h4p2-------------|

A|------------------------|--2--2--4--5-----------| ----------------5--4--2--|

E|-------2--0--2--0-------|-----------------------|-------------------------|

[Versetto]
G D
No le enviaré
G D
cenizas de rosas
G D
ni pienso evitar
G D A
sus roce secreto.
[Coro]
Bm G D
De aquel amor
A Bm G D A
de música ligera
Bm G D
nada nos libra
A Bm G D A
nada más queda.
[Solo]
e|--7--5--7--5--7--5/2--2-0-2-(5.2.0)-2--5/7-7-

b|----------------------------------------------

g|----------------------------------------------

D|----------------------------------------------

A|----------------------------------------------

E|----------------------------------------------

e|-----12-10-9-10-12-10-9-7-9-7-5-

b|--------------------------------

g|--------------------------------

D|--------------------------------

A|--------------------------------

E|--------------------------------

e|---0-(5.7.5)--0-(5.7.5)--0-(7.9.7)-0-(7.9.7)-0-

b|---------------------------------------------------

g|---------------------------------------------------

D|---------------------------------------------------

A|---------------------------------------------------

E|---------------------------------------------------

e|---14--12--14--12-14-15-14-12--12-14-15-14-12-10-9-10-12-10-9----

b|-----------------------------------------------------------------

g|-----------------------------------------------------------------

D|-----------------------------------------------------------------

A|-----------------------------------------------------------------

E|-----------------------------------------------------------------

e|---2-(5.2.0)-2----5-(7.5.0)-5---2-(5.2.0)--2-----

b|----------------------------------------------------

g|----------------------------------------------------

D|----------------------------------------------------

A|----------------------------------------------------

E|----------------------------------------------------

e|--5.7.5--7.9.7--9.11.9--10.12.10--14--||

b|--------------------------------------||

g|--------------------------------------||

D|--------------------------------------||

A|--------------------------------------||

E|--------------------------------------||

[Coro]
Bm G D
De aquel amor
A Bm G D A
de música ligera
Bm G D
nada nos libra
A Bm G D A
nada más queda.
[Strumentale]
B G D A

B G D A

[Coro]
B5 G-D A B5
nada más queda, nada mas queda
A B5 G-D A B5
nada más queda, nada mas queda
A B5 G-D A B5
nada más queda, nada mas queda
A B5 G-D A B5
nada más queda, nada mas queda
G D
Questo sito utilizza i cookie