Regtest

Per aggiungere un elenco personale è necessario effettuare il
o

Sumo

Versione
studio
pubblicato da
iri
Tono
A-
A+
Scorrere
A -> La
Video
Accordi
Traduzione
	 
[Tab]
Am Dm Am E
e|------0----------1---------0---------0----|

b|-------1--------3-3---------1---------0---|

g|----2---2------2---2-----2---2---------1--|

D|---2----------0---------2----------2------|x2

A|--0--------------------0----------2-------|

E|---------------------------------0--------|

[Intro]

Some call this happy valley rock:
[Intro]
Am - Dm - Am - E
[Versetto]
Am Dm
play us some music,lord,:
Am E7
i hope i won't come on too strong
Am Dm
you can´t refuse it,yeah,
Am E7
but yow know you might be wrong
[Versetto]
Am Dm
yow could call it reggae,
Am E7
you couldn't call it rock and roll
Am Dm
come on get ready,
Am E7
there´s a big ball going to roll
[Coro]
Am
You better get up brother up,
Dm Am
brother up get brother up,yeah
E7
don´t you go too far
Am
you better get down,brother down,
Dm
brother down,brother down,brother down yeah,
Am E7
like a shooting star.
[Versetto]
Am Dm Am E7
I had a dream oh yeah, in 1973
Am Dm Am E7
I dream a spaceship,lord, come down to deliver me
Am Dm Am E7
It was big and white And it had come a long long way
Am Dm Am E7
A black star liner? yeah! You know, I could not say
[Coro]
Am
You better get up brother up,
Dm Am
brother up get brother up,yeah
E7
don´t you go too far
Am
you better get down,brother down,
Dm
brother down,brother down,brother down yeah,
Am E7
like a shooting star.
[Ponte]
Am Dm Am E7
xxxx
Am Dm Am E7
xxxx
[Solo]
|-------------------------------------------------------------|

|--8-1010--8-8h(10)-8~~----15/17-15-131513--------------------|

|-9---------------------------------------14--14p12-----------|

|---------------------------------------------------12/(14)12-|

|-------------------------------------------------------------|

|-------------------------------------------------------------|

|----------12----------------------------|

|----13-15-------10-12-12br----1210-108--|

|-12-----------12------------------------|

|----------------------------------------|

|----------------------------------------|

|----------------------------------------|

-----------------------------------------|

--10p8-----------------------------------|

------9----9p7---------------------------|

--------------9-----7--------------------|

-------------------9-9-------------------|

-------------------------10/(12)-10--12/-|

[Versetto]
Am Dm
Still play my music
Am E7
I hope I don't come on too strong
Am Dm
You can't refuse it, lord
Am E7
But you know you might be wrong
[Versetto]
Am Dm
You could call it reggae
Am E7
You couldn't call this rock and roll
Am Dm
Come on , get ready
Am E7
there's a big ball going to roll
[Coro]
Am
You better get up brother up,
Dm Am
brother up get brother up,yeah
E7
don´t you go too far
Am
you better get down,brother down,
Dm
brother down,brother down,brother down yeah,
Am E7
like a shooting star...
Am Dm Am E7
Am Dm Am E7
[Solo]
e|------------------------------------------ |

b|--15/(17)---1315---------13-15br-15br13--- |

g|----------------14/----14----------------- |

D|------------------------------------------ |

A|------------------------------------------ |

E|------------------------------------------|

e|------------------------| ---------------------------17----|

b|----13--15-13-15/(17)15-| --13--13-15-15/(17)------15--15--|

g|------14----------------| ----14---------------------------|

D|------------------------| ---------------------------------|

A|------------------------| ---------------------------------|

e|------------------------|---------------------------------|

e|--------17-----------15--17--19--|

b|--151315--1513-------------------|

g|-------------------17--17--17----|

D|---------------------------------|

A|---------------------------------|

E|---------------------------------|

e|---------5---------------|

b|---------5---------------|

g|-97------5---------------|

D|----975--7---------------|

A|-------7-7---------------|

E|---------5---------------|

Questo sito utilizza i cookie