Boys Don't Cry

Per aggiungere un elenco personale è necessario effettuare il
o

The Cure

Versione
studio
pubblicato da
iri
Tono
A-
A+
Scorrere
A -> La
Video
Accordi
Traduzione
	 
[Intro]
A Bm C#m D D5 C#5 B5 A
[Riff]
A Bm
e|-------------------------------------------|

b|-2--2-2--3-5--2--2-2--3-5------------------|

g|-------------------------------------------|

D|-------------------------------------------|

A|-------------------------------------------|

E|-------------------------------------------|

C#m D D5 C#5 B5 A
e|-------------------------------------------|

b|-5--5-5--7-9--10---7-5-3-------------------|

g|-------------------------------------------|

D|-------------------------------------------|

A|-------------------------------------------|

E|-------------------------------------------|

[Versetto]
A Bm
I would say I'm sorry if
C#m D
I thought that it would change your mind
A Bm
But I know that this time
C#m D
I have said too much, been to unkind
[Pre-Coro]
C#m D
I have said too much, been to unkind
C#m Bm
Cover it all up with lies
C#m Bm
I try to laugh about it
C#m Bm
Hiding the tears in my eyes
[Coro]
A Bm C#m D [D5 C#5 B5] Riff
Cos' boys don't cry
A Bm C#m D [D5 C#5 B5] Riff
Boys don't cry
[Versetto]
A Bm
I would break down at your feet
C#m D
And beg forgiveness, plead with you
A Bm
But I know that it's too late
C#m D
And now there's nothing left that I can do
[Pre-Coro]
C#m Bm
So I try to laugh about it
C#m Bm
Cover it all up with lies
C#m Bm
I try to laugh about it
C#m Bm
Hiding the tears in my eyes
[Coro]
A Bm C#m D [D5 C#5 B5] Riff
Cos' boys don't cry
A Bm C#m D [D5 C#5 B5] Riff
Boys don't cry
[Versetto]
A Bm C#m
I would tell you that I loved you if
D
I thought that you would stay
A Bm
But I know that it's no use that
C#m D
You've already gone away
[Ponte]
E F#m
Misjudged your limit
E F#m
Pushed you too far
E F#m
Took you for granted
Bm E
I thought that you needed me more
[Versetto]
A Bm
Now I would do most anything
C#m D
To get you back by my side
A Bm
But I just keep on laughing
C#m D
Hiding the tears in my eyes
[Coro]
A Bm C#m D [D5 C#5 B5] Riff
Cos' boys don't cry
A Bm C#m D [D5 C#5 B5] Riff
Boys don't cry
A Bm C#m D [D5 C#5 B5] Riff
Boys don't cry
[Riff]
e|-------------------------------------------|

b|-2--2-2--3-5--2--2-2--3-5------------------|

g|-------------------------------------------|

D|-------------------------------------------|

A|-------------------------------------------|

E|-------------------------------------------|

e|-------------------------------------------|

b|-5--5-5--7-9--10---7-5-3-------------------|

g|-------------------------------------------|

D|-------------------------------------------|

A|-------------------------------------------|

E|-------------------------------------------|

Questo sito utilizza i cookie