Someday

Per aggiungere un elenco personale è necessario effettuare il
o

The Strokes

Versione
studio
pubblicato da
rafah
Tono
A-
A+
Scorrere
A -> La
Video
Accordi
Traduzione
	 
[Tab]
intro e verse
A Bm D A
E|-5---7------5---7------9---7------7---5----|

B|-5---5------7---7------7---7------7---5----|

G|-6---6------7---7------7---7------7---6----|

D|-------------------------------------------|

A|-------------------------------------------|

E|-------------------------------------------|

chorus
A E F#m A
E|-9-12-9-----7-10-7-----5-9-5--------7------5-------|

B|------------------------------------7------5-------|

G|------------------------------------7------6-------|

D|------------------------------------7------7-------|

A|---------------------------------------------------|

E|---------------------------------------------------|

Intro 2x


Guitar 1: (verse 2x)

Guitar 2: A Bm D A

[Versetto]
A Bm
In many ways, they'll miss the good old days
D A
Someday, someday
A Bm
Yeah, it hurts to say, but I want you to stay
D A
Sometimes, sometimes
Guitara 1: (verse 2x)

Guitara 2: A Bm D A

[Versetto]
A Bm
When we was young, oh man, did we have fun
D A
Always, always
A Bm
Promises, they break before they're made
D A
Sometimes, sometimes
Guitar 1: (chorus 4x)

Guitar 2: A E F#m D A

[Coro]
A E F#m D
Oh, my ex says I'm lacking in depth
A
I will do my best
A E F#m
You say you wanna stay by my side
D A
Darlin', your head's not right
A E F#m
See, alone we stand, together we fall apart
D A
Yeah, I think I'll be alright
A E F#m
I'm working so I won't have to try so hard
D A
Tables, they turn sometimes
E
Oh, someday...
No, I ain't wastin' no more time
[Tab]
E|-------------------------|

B|-------------------------|

G|-------------------------|

D|-------------------------|

A|-------------5-5---------|

E|-5-5---7-7---------5-5---|

(Intro)

Guitar 1: (verse 2x)

Guitar 2: A Bm D A

[Versetto]
A
And now my fears
Bm
They come to me in threes
D
So, I
A
Sometimes
A
Say, "Fate my friend,
Bm
You say the strangest things
D A
I find, sometimes"
Guitar 1: (chorus 4x)

Guitar 2: A E F#m D A

[Coro]
A E F#m D
Oh, my ex says I'm lacking in depth
A
I will do my best
A E F#m
You say you wanna stay by my side
D A
Darlin', your head's not right
A E F#m
See, alone we stand, together we fall apart
D A
Yeah, I think I'll be alright
A E F#m
I'm working so I won't have to try so hard
D A
Tables, they turn sometimes
E
Oh, someday...
A
I ain't wasting no more time
Questo sito utilizza i cookie