El Tanguito

To add a personal list must
or

Los Gardelitos

Version
studio
published by
iri
Tone
A-
A+
Slide
A -> La
Video
Chords
Translation
	 
[Tab]
Am Dm
e|--0---8-7-5--8-7-5-0----|----------|--0---8-7-5--8-7-5------|

b|------------------------|----------|-------------------3----|

g|------------------------|----------|------------------------|

D|------------------------|----5-6-7-|------------------------|

A|------------------------|--7-------|------------------------|

E|------------------------|----------|------------------------|

E7
e|-----------|--5---5-5-5--7-8-8-8-7--5-7-8-7-|

b|-----------|--------------------------------|

g|--10-9-8---|--------------------------------|

D|--10-9-8---|--------------------------------|

A|--8--7-6-5-|--------------------------------|

E|-----------|--------------------------------|

Am
e|--8/10---10-10-10---8-7-5-5/7--|----------------------|

b|-------------------------------|----------------------|

g|-------------------------------|--9----8----7---------|

D|-------------------------------|--9----8----7---------|

A|-------------------------------|--7----6----5----5----|

E|-------------------------------|----------------------|

F
e|--8/12--12-12-12--10-10-10-10-8----|--8-8-10-8------------|

b|-----------------------------------|----------------------|

g|-----------------------------------|----------------------|

D|-----------------------------------|----------------------|

A|-----------------------------------|----------------------|

E|-----------------------------------|----------------------|

Am
e|--3-5-3-5-3-5-3-0------|------------------|

b|-----------------------|------------------|

g|-----------------------|------------------|

D|-----------------------|--5---------------|

A|-----------------------|--3---2---1---5---|

E|-----------------------|------------------|

E7 Am
--5---5-5-5--7-8-8-8-7--5-7-8-7-|--8/10---10-10-10---8-7-5-5/7--|

--------------------------------|-------------------------------|

--------------------------------|-------------------------------|

--------------------------------|-------------------------------|

--------------------------------|-------------------------------|

--------------------------------|-------------------------------|

F
------------------|--8/12--12-12-12--10-10-10-10-8----|

------------------|-----------------------------------|

------------------|-----------------------------------|

------------------|-----------------------------------|

--7---6---5---5---|-----------------------------------|

--5---4---3-------|-----------------------------------|

Am E7 Am
e|--8-8-10-8------------|--0---5-7-8-7-5---------|--------5--------|

b|----------------------|----------------8-10----|--3/5------------|

g|----------------------|------------------------|-----------------|

D|----------------------|------------------------|-----------------|

A|----------------------|------------------------|-----------------|

E|----------------------|------------------------|-----------------|

This site uses cookies