Gardeliando

To add a personal list must
or

Los Gardelitos

Version
studio
published by
iri
Tone
A-
A+
Slide
A -> La
Video
Chords
Translation
	 
[Intro]
e|-------------------------------------------------|

b|-------------------------------------------------|

g|-------------------------------------------------|X2

D|-------------------------------------------------|

A|-------------------------------------------------|

E|-0-0-0-0-0-0-0-0-0-0-2-4--4-4-4-4-4-4-4-4--4-2-0-|

e|-0-0-------0----------------------------------0-----------------------|

b|-0---0-------0--4h5-4-------------4h5-4--------0----------------------|

g|-1-----0h1------------6-4-3-------------6-4-3---0h1-------------------|

D|-2--------------------------6-5-6-----------------------4-6-4----4h5-4|

A|-2--------------------------------------------------2/7-------7-6-----|

E|-0--------------------------------------------------------------------|

e|---------------------------------------------------------------------|

b|---------------------------------------------------------------------|

g|---------------------------------------------------------------------|

D|----4-6-4-----------4p6-666-4-------------4-6-4----------------------|

A|-/7-------6/7-6-6-------------7-6-7----/7-------7-6-6-6-6-6p7-6-5-6--|

E|---------------------------------------------------------------------|

e|-----------2/4-6-6/7-6-4-2/4---7-6-4-----------------7-6-4-------------|

b|-4h5-4-3-4---------------------------7-5-4-2-5/7-5---------7-5-4-2-2/4-|

g|-----------------------------------------------------------------------|

D|-----------------------------------------------------------------------|

A|-----------------------------------------------------------------------|

E|-----------------------------------------------------------------------|

e|-------------------|

b|-4-4h5-4-----------|

g|---------6-4-3-4-3-|

D|-------------------|

A|-------------------|

E|-------------------

[Verse]
E G#m F#m
Solo la musica esta en mi corazon
E G#m F#m
solo la musica puede darme amor
E G#m F#m
solo la musica esta a mi alrededor.
E G#m F#m
Estan haciendo un faso a la vuelta de la esquina.
E G#m F#m
Estan tomando un vino o corriendo alguna mina
E G#m F#m
y si no fuera asi, que ciudad tan aburrida.
[Pre-Chorus]
E G#m F#m
De Tablada, a Lanus
E G#m F#m
de Mataderos, hasta Flores
E G#m F#m
de Barracas, a La Boca
E G#m F#m
de Chacarita a La Paternal.
[Chorus]
E G#m F#m
La sonrisa de Gardel, La sonrisa de Gardel
E G#m F#m
ilumina la ciudad, Ilumina la ciudad
E G#m F#m
la ciudad que alguna vez, la ciudad que alguna vez
E G#m F#m
era totalmente de el. Era totalmente de el
E G#m F#m
Ahora es tuya la ciudad,
E G#m B5
ahora es tuya y nada mas.
[Post-Chorus]
B5 D5 C#5 D5 C#5 D5
Si no te gusta lo que vez
B5 D5 C#5 D5 C#5 D5
Andate a vivir a Nueva York
B5 D5 C#5 D5 C#5 D5
Si no te gusta como soy
B5 D5 C#5 D5 C#5 D5
andate a morir a Nueva York
E5 F5 F#5 G5 G#5 A5 A#5 B5 C5 C#5 D5 D#5 E5
Caretas, caretas, caretas
[Bridge]
[E | G#m]x2
[Solo]
e|-----------------------------------------| |---------------|

b|-----------------------------------------| |---------------|

g|-----------------4-4-4-3-----------------| |---------------|

D|-------------------------6p4-------------|x2|---------------|

A|---4-6-7-7-7-6-7-------------6-6-6/7-6--6| |-6h7-6-4-------|

E|-7---------------------------------------| |---------7-6-7-|

e|-0-0-------0----------------------------------0----------------|

b|-0---0-------0--4h5-4-------------4h5-4--------0----------3h4-4|

g|-1-----0h1------------6-4-3-------------6-4-3---0h1-1-0h1------|

D|-2--------------------------6-5-6------------------------------|

A|-2-------------------------------------------------------------|

E|-0-------------------------------------------------------------|

[Verse]
E G#m F#m
Estan haciendo un faso a la vuelta de la esquina.
E G#m F#m
Estan tomando un vino o corriendo alguna mina
E G#m F#m
y si no fuera asi, que ciudad tan aburrida.
[Pre-Chorus]
E G#m F#m
De Tablada, a Lanus
E G#m F#m
de Mataderos, hasta Flores
E G#m F#m
de Barracas, a La Boca
E G#m F#m
de Chacarita a La Paternal.
[Chorus]
E G#m F#m
La sonrisa de Gardel, La sonrisa de Gardel
E G#m F#m
ilumina la ciudad, Ilumina la ciudad
E G#m F#m
la sonrisa de aquel, que busco felicidad
E G#m F#m
era totalmente de el. Era totalmente de el
E G#m F#m
Ahora es nuestra la ciudad,
E G#m B5
ahora es nuestra y nada mas.
[Post-Chorus]
B5 D5 C#5 D5 C#5 D5
Si no te gusta lo que vez
B5 D5 C#5 D5 C#5 D5
Andate a vivir a Nueva York
B5 D5 C#5 D5 C#5 D5
Si no te gusta como soy
B5 D5 C#5 D5 C#5 D5
andate a morir a Nueva York
E5 F5 F#5 G5 G#5 A5 A#5 B5 C5 C#5 D5 D#5 E5
Caretas, caretas, caretas
This site uses cookies