Lo Que Mis Vecinos Creen

To add a personal list must
or

Los Gardelitos

Version
studio
published by
iri
Tone
A-
A+
Slide
A -> La
Video
Chords
Translation
	 
[Intro]
D5 C5 G5 D5
[Verse]
G5
Todos mis vecinos creen
G5 G A5 A#5 B5
que estoy completamente loco
C5
que no tengo nada en la cabeza
G5
todo el dia tomando cerveza
D5 C5
sin embargo cuando toco
G5 D5
no pueden parar de bailar.
[Chorus]
G5
Rocanrol, rocanrol,
G5
es todo lo que puedo dar
C5
rocanrol, rocanrol
C5
es todo lo que puedo dar
D5 C5
y ahora que todos lo saben
G5 D5
me tienen que aguantar.
[Solo]
| G5 | G5 | C5 | C5 |

| D5 | C5 | G5 | D5 |

[Solo]
e|3-3-3-3-3-3-3-3-3-3-3|-3-3-3-3-3-3-3-3-3-3|-3-3-3-3-3-3-3-3-3-3-3-3-3-|

b|3-3-3-3-3-3-3-3-3-3-3|-3-3-3-3-3-3-3-3-3-3|-3-3-3-3-3-3-3-3-3-3-3-3-3-|

g|---------------------|--------------------|---------------------------|

D|---------------------|--------------------|---------------------------|

A|---------------------|--------------------|---------------------------|

E|---------------------|--------------------|---------------------------|

e|-----3-5^-3-5^-3-5^-----------10----10-----10----10-----------|

b|-4/5----------------------10^---10^----10^---10^------8...----|

g|--------------------------------------------------------------|

D|--------------------------------------------------------------|

A|--------------------------------------------------------------|

E|--------------------------------------------------------------|

e|------------------|---------------------------------------------|

b|-5p3h5p3----------|---------------------------------------------|

g|---------5-3------|5^-5-3----5^-3-5^-5-3------------------------|

D|-------------5...-|-------5---------------5....-5-3---------5...|

A|------------------|---------------------------------5-3----3----|

E|------------------|-------------------------------------5-3-----|

e|-5^-5-3---3-5-----6^-6-5-3-5-3----10----10---------------3--|

b|-5-----------------------10^---10^---10--8-10--8------------|

g|------------------------------------------------------------|

D|------------------------------------------------------------|

A|------------------------------------------------------------|

E|------------------------------------------------------------|

e|6-3-6-6-3-6...--6-3------------------|10-8-11-10----------8-10---- -|

b|5-3-5-5-3-5...--5-3------------------|10-8-11-10------8-10----10p8-|

g|---------------------5^-3-5^-5-3-----|-----------8-10------------- -|

D|---------------------------------5...|---------------------------- -|

A|-------------------------------------|---------------------------- -|

E|-------------------------------------|-----------------------------|

e|--8-7-6-4------|

b|-7-6-5-5--4(3)-|

g|---------------|

D|---------------|

A|---------------|

E|---------------|

[Verse]
G5
Presiento que estamos creando
G5 G A5 A#5 B5
una bola infernal,
C5
de gente bien colocada
G5
que de la vida quiere gozar
D5 C5
amigo no es imposible,
G5 D5
lo tenemos que intentar.
[Verse]
G5
No importa que seas un viejo,
G5 G A5 A#5 B5
que tus piernas ya no den mas,
C5
no importa que seas un pendejo
G5
que en el mañana no quiere pensar,
D5 C5
lo importante es que si estamos juntos
G5 D5
no nos van a poder parar.
[Chorus]
G5
Rocanrol, rocanrol,
G5
es todo lo que puedo dar
C5
rocanrol, rocanrol
C5
es todo lo que puedo dar
D5 C5
y ahora que todos lo saben
G5 D5
me tienen que aguantar.
[Solo]
e|-3-3---3-3-|3-3--------|-3-3---3-3-|3-3--------|-3-3---3-3-|3-3-------|

b|-3-3-5-3-3-|3-3-5^-----|-3-3-5-3-3-|3-3-5^-----|-3-3-5-3-3-|3-3-5^----|

g|-----------|------3(2)-|-----------|------3(2)-|-----------|------3(2)|

D|-----------|-----------|-----------|-----------|-----------|----------|

A|-----------|-----------|-----------|-----------|-----------|----------|

E|-----------|-----------|-----------|-----------|-----------|----------|

e|-3-3---3-3-|3-3--------|---------------------------------|-------5^- |

b|-3-3-5-3-3-|3-3-5^-----|--3-3-3-3-3-3--3-3--3-3--3-3--3-3|----5-3--- |

g|-----------|-------3(2)|5^---5^--5^--5^---5^---5^---5^---|-5-3------ |

D|-----------|-----------|---------------------------------|---------- |

A|-----------|-----------|---------------------------------|---------- |

E|-----------|-----------|---------------------------------|----------|

e|-3------3...-----|

b|---5--3-3...-----|

g|-----------------|

D|-----------------|

A|-----------------|

E|-----------------|

[Solo]
| G5 | G5 | C5 | C5 |

| D5 | C5 | G5 | D5 |

This site uses cookies