La Constelación De La Virgen

To add a personal list must
or

Los Gardelitos

Version
studio
published by
iri
Tone
A-
A+
Slide
A -> La
Video
Chords
Translation
	 
[Intro]
Em D
e|------------------------------|------------------------------|

b|----0------0------0------0----|----0------0------0------0----|

g|------0------0------0------0--|------0------0------0------0--|

D|--------5-------------5-------|--------4-------------4-------|

A|--7-------------7-------------|--5-------------5-------------|

E|------------------------------|------------------------------|

Em D
e|------------------------------|------------------------------|

b|----0------0------0------0----|----0------0------0------0----|

g|------0------0------0------0--|------0------0------0------0--|

D|--------5-------------5-------|--------4-------------4-------|

A|--7-------------7-------------|--5-------------5-------------|

E|------------------------------|------------------------------|

C Bm C Bm
e|------------------------------|------------------------------|

b|--------1-------------3-------|--------1-------------3-------|

g|------0----0--------4----4----|------0----0--------4----4----|

D|----2--------2----4--------4--|----2--------2----4--------4--|

A|--3-------------2-------------|--3-------------2-------------|

E|------------------------------|------------------------------|

C D Em
e|------------------------------|--7--|

b|--------5-------------7-------|--8--|

g|------5----5--------7----7----|--9--|

D|----5--------5----7--------7--|--9--|

A|--3-------------5-------------|--7--|

E|------------------------------|-----|

[Intro]
[Em | D]x2

[ C | Bm | C | Bm]

[C | D | Em]

Em D Em D

[Verse]
Em Em/G Em Em/G
Se que te cansas de tanto esperar
D D/F# D D/F#
y que las noches son largas en este invierno.
Em Em/G Em Em/G D
Es un desierto cuando camino la ciudad
D/F# D D/F#
y no puedo tenerte a mi lado.
[Pre-Chorus]
Em Em
Y las mentiras que nos contamos
D D
son las caras vencidas de los relojes,
C Bm C Bm C Dsus4 D
pero si te vas...
[Chorus]
Em Bm C D C
nunca voy a poder llegar a tiempo,
Em Bm C D C Bm C
nunca voy a poder amar despierto, oh no, mi amor,
Bm C D Em
nunca mas...no no no, no no no, no no no
[Solo]
[ Em | D ]x4


[Solo]
e|----------------------------|10-12-10-8-10-8-7-8-7---------|

B|----------------------------|----------------------10-8-7--|

G|----------------------------|----------------------------9-|

D|-------7--------------------|------------------------------|

A|-7-9-10-10--9h10p9-7-5-7-5--|------------------------------|

E|----------------------------|------------------------------|

--------------------------------------8-7h8p7----7h8-7----------|

-------------------------------------------------------10-8-7---|

---------11-12-11-12/14-(14)(14)(14)--------------------------9-|

-9-10-12--------------------------------------------------------|

----------------------------------------------------------------|

----------------------------------------------------------------|

---------------------------------------|

---------------------------------------|

-9-11-11h12--11--9--7-9-9/11-9-7-7h9-7~|

---------------------------------------|

---------------------------------------|

---------------------------------------|

[Verse]
Em Em/G Em Em/G
Vi en tus ojos miles de niños
D D/F# D D/F#
cobijando la historia la espada del tiempo.
Em Em/G Em Em/G D
Flores del agua, son nuestros hijos
D/F# D D/F#
en sus naves doradas las alas del viento.
[Pre-Chorus]
Em Em
Pueden mirarse a travez de los cuerpos
D D
como miras la luz en mi ventana,
C Bm C Bm C Dsus4 D
el mañana es hoy.
[Chorus]
Em Bm C D C
Corre el año dos mil el mundo es otro,
Em Bm C D C Bm C
corre el año dos mil la gente vuela, al fin mi amor
Bm C D Em
volo tambien, mi amor, volo...
[Bridge]
| Em E/G Em | D | C Bm Am|

| Em | D | Em | D |x12

[Verse]
Em Em/G Em Em/G
Y aquí entre las calles algo de luna
D D/F# D D/F#
aligera la noche, sigue lloviendo.
Em Em/G Em Em/G D
Tus pensamientos estrellas distantes
D D/F# D D/F#
que nunca se acercan, duermen tus sueños.
[Pre-Chorus]
Em Em
Si con tus manos no podes tocar
D D
el fondo distante de este banco de nieblas
C Bm C Bm C Dsus4 D
a tu constelación.
[Chorus]
Em Bm C D C
Nunca van a llegar los astronautas,
Em Bm C D C
nunca van a llegar los astronautas
Bm C Bm C D Em
a tu constelacion, no no no, no no no, no no no...
[Chorus]
Em Bm C D C
Em Bm C D C
Bm C Bm C D Em
This site uses cookies