Saline Solution

To add a personal list must
or

Wilbur Soot

Version
acoustic
published by
sunlight
Tone
A-
A+
Slide
A -> La
Video
Chords
	 

* = single chord

~ = pluck the top E string 5 and 0


[Chords Bridge]

Dm7 Cm F#7b9

e|--5----3----2----|

B|--6----4----2----|

G|--5----5----0----|

D|--0----5----2----|

A|--0----3----1----|

E|--x----3---------|

[Intro]
F7 Am C x4
[Verse]
F7 * Am C
I think I'm dying this time
F7 Am C
I’m not melodramatic
Em
I'm just pragmatic beyond any
F7 Am C
Reasoning for thinking I've got
Em
Fuckin’ rabies, or something
[Chorus]
F ~ Am C
I think I'm dying this time
F ~ Am C
I think I'm dying this time
[Tab]
e|-0-0---0---0-------------|

B|-1-1---1---1-------------|

G|-2-2---0---0-----0-------| x4

D|-3-3---2---2---------2---|

A|-0-0---3---3---3---------|

E|-1-1---0---0-------------|

[Verse]
F7 * Am C
I think I've lost my mind
F7 Am
Blurring the fact and the fictions
C Em
While simultaneously fixing
F7 Am C
Myself up with a girl
Em
Named panadol
F7 Am
Bite the tablet, elixir
C Em
Disintegrate, mouth's a mixer
[Chorus]
F ~ Am C
I think I've lost my mind
F ~ Am C
I think I've lost my mind
[Tab]
e|-0-0---0---0-------------|

B|-1-1---1---1-------------|

G|-2-2---0---0-----0-------| x2

D|-3-3---2---2---------2---|

A|-0-0---3---3---3---------|

E|-1-1---0---0-------------|

[Tab]
Dm7 Cm F#7b9

If I could just break one more night

Dm7 Cm F#7b9

Maybe I could wake up and feel alright

Dm7 Cm F#7b9

My optimistically set alarm clock time

Dm7 Cm F#7b9 D7

Serves only to mock me with flashing lights

[Bridge]
Dm7 Cm F#7b9
If I could just break one more night
Dm7 Cm F#7b9
Maybe I could wake up and feel alright
Dm7 Cm F#7b9
My optimistically set alarm clock time
Dm7 Cm F#7b9 D7
Serves only to mock me with flashing lights
[Tab]
e|-0-0---0---0-------------|

B|-1-1---1---1-------------|

G|-2-2---0---0-----0-------| x4

D|-3-3---2---2---------2---|

A|-0-0---3---3---3---------|

E|-1-1---0---0-------------|

[Verse]
F7 Am C
I think I've made my choice
F7 Am
Sit secluded in hatred
C Em
Devoid of plans friends are making
F7 Am C
I think I’ve made my choice
F7 Am
I’m a leech, sucking blood bag
C Em
Taste defeat, it's a sandbag
F7 Am C
I think I’ve found my voice
F7
I sit secluded in hatred
C Em
Devoid of plans friends are making
[Outro]
F7 * C Am
Saline solution
F7 * C Am
Saline solution to all your
F7 * ~ C Am
Saline solution
F7 * ~ C Am F7
Saline solution to all your problems
This site uses cookies