El pibe de los astilleros

Para añadir a una lista personal debes
ó

Patricio Rey y sus Redonditos de Ricota

Versión
estudio
publicado por
rafah
Tono
A-
A+
Deslizar
A -> La
Video
Acordes
	 
[Riff]
Em G D G Em G D Em
e|---------------|-------------------|---------------|-------------|

B|---------------|-------------------|---------------|-------------|

G|-9-9-7-9-7-----|-------------------|-9-9-7-9-7-----|-------------|

D|-----------9-9-|-5-7-7-5---5-------|-----------9-9-|-5-7-7-5-----|

A|---------------|---------7---7-5---|---------------|---------7-7-|x2

E|---------------|-----------------7-|---------------|-------------|

[Estrofa]
Em G C D
Fue unos meses a Caseros y su strato roja
Em G C D
Se hizo el torbellino que hoy suena en la radio
Em G C D
La ceniza no caía desde su cigarro
Em D C
Y estaba en sus ojos desarmandote
[Riff]
Em G D G Em G D Em
e|---------------|-------------------|---------------|-------------|

B|---------------|-------------------|---------------|-------------|

G|-9-9-7-9-7-----|-------------------|-9-9-7-9-7-----|-------------|

D|-----------9-9-|-5-7-7-5---5-------|-----------9-9-|-5-7-7-5-----|

A|---------------|---------7---7-5---|---------------|---------7-7-|

E|---------------|-----------------7-|---------------|-------------|

[Estrofa]
Em G C D
Alquiló una rana rubia, tibia y haragana
Em G C D
Se moría de ganas de matarla
Em G C D
Una linda damita de Concordia
Em D C
El más bello fuselaje que jamás lustro
[Riff]
Em G D G Em G D Em
e|---------------|-------------------|---------------|-------------|

B|---------------|-------------------|---------------|-------------|

G|-9-9-7-9-7-----|-------------------|-9-9-7-9-7-----|-------------|

D|-----------9-9-|-5-7-7-5---5-------|-----------9-9-|-5-7-7-5-----|

A|---------------|---------7---7-5---|---------------|---------7-7-|

E|---------------|-----------------7-|---------------|-------------|

[Estrofa]
B C A
Le hizo un par de promesas imprudentes
B C A
Y así fue que de ella se aburrió
B C A
Las minitas aman los payasos
B C D
Y la pasta del campeón
[Riff]
Em G D G Em G D Em
e|---------------|-------------------|---------------|-------------|

B|---------------|-------------------|---------------|-------------|

G|-9-9-7-9-7-----|-------------------|-9-9-7-9-7-----|-------------|

D|-----------9-9-|-5-7-7-5---5-------|-----------9-9-|-5-7-7-5-----|

A|---------------|---------7---7-5---|---------------|---------7-7-|

E|---------------|-----------------7-|---------------|-------------|

[Estrofa]
Em G C D
El pibe de los astilleros nunca se rendía
Em G C D
Tuvo un palacete por un par de días
Em G C D
Rapiñaba montado a los containers
Em D C
El maldito amor que tanto miedo da
[Solo]
(G D C D)x3 Em D C
[Estrofa]
Em G C D
Fue por una lluvia que realmente moje
Em G C D
Que pusiera fin a su aventura
Em G C D
Un final feliz para pimpollos
Em D C
Allí estaba el fin acechándolo
[Riff]
Em G D G Em G D Em
e|---------------|-------------------|---------------|-------------|

B|---------------|-------------------|---------------|-------------|

G|-9-9-7-9-7-----|-------------------|-9-9-7-9-7-----|-------------|

D|-----------9-9-|-5-7-7-5---5-------|-----------9-9-|-5-7-7-5-----|

A|---------------|---------7---7-5---|---------------|---------7-7-|

E|---------------|-----------------7-|---------------|-------------|

[Estrofa]
B C A
Ciertos reyes no viajan en camellos
B C A
Ellos andan al tranco del amor
B C A
Esos tipos soplan con el viento
B C D
Al rebaño y su temor
[Riff]
(Em G D G Em G D Em)x3 C Em
e|---------------|-------------------|---------------|-------------|

B|---------------|-------------------|---------------|-------------|

G|-9-9-7-9-7-----|-------------------|-9-9-7-9-7-----|-------------|

D|-----------9-9-|-5-7-7-5---5-------|-----------9-9-|-5-7-7-5-----|

A|---------------|---------7---7-5---|---------------|---------7-7-|

E|---------------|-----------------7-|---------------|-------------|

e|------------------|

B|------------------|

G|------------------|

D|--5h7-7-5h7p5-----|

A|--------------7-7-|

E|------------------|

Este sitio usa cookies