Come As You Are

Para añadir a una lista personal debes
ó

Nirvana

Versión
acústica
publicado por
iri
Tono
A-
A+
Deslizar
A -> La
Video
[Afinación: Eb Ab Db Gb Bb Eb (-1/2 Tono)]
Acordes
Traducción
	 
[Riff]
E|------------------------------------------|------------------------------------------|

B|------------------------------------------|------------------------------------------|

G|------------------------------------------|------------------------------------------|

D|------------------------------------------|------------------------------------------|

A|---------0---0---------2------------------|-2-------0---0---------2------------------|

E|-0-0-1-2---2---2-2-1-0---0-0--------------|---0-1-2---2---2-2-1-0---0-0--------------|

[Intro]
F#m E
[Estrofa]
F#m E F#m E F#m
Come as you are, As you were, As I want you to be
E F#m E F#m
As a friend, As a friend, As an old enemy
E F#m E F#m
Take your time, Hurry up. The choice is yours - don't be late
E F#m E F#m A
Take a rest, as a friend, as an old memoria
[Estribillo]
F#m A
Memory, yeah
F#m A
Memory, yeah
F#m A
Memory, yeah
[Estrofa]
F#m E F#m E F#m
Come dowsed in mud, Soaked in bleach, As I want you to be
E F#m E F#m A
As a trend, As a friend, As an old memoria
[Estribillo]
F#m A
Memory, yeah
F#m A
Memory, yeah
F#m A
Memory, yeah
[Puente]
B D B D
And I swear that I don't have a gun
B D B D
No I don't have a gun - No I don't have a gun
[Riff]
D|-----------------------------------|

A|-----------------------------------|

F|-----------------------------------|

C|-----------------------------------|

D|-0-0-1-2-----2---2-2-1-0---0-0-----| x4

[Solo]
E|------------------------------------------|------------------------------------------|

B|------------0-0-0--0----------0-0-0--0----|------0-0-0--0--0-----0--0--0--0--0-0-0---|

G|-6-6-6-6-—6—9-9-11-11/6--6~-6-9-9-11-11/6-|-6~-6-9-9-11-11-11/13-13-13-11-11-9-9-----|

D|------------------------------------------|------------------------------------------|

A|------------------------------------------|------------------------------------------|

E|------------------------------------------|------------------------------------------|

E|------------------------------------------|------------------------------------------|

B|------0-0-0--0----------0-0-0--0----------|------0-0-0--0--0-----0--0--0--0--0-0-0---|

G|-6~—6—9-9-11-11/6--6~-6-9-9-11-11/6-------|-6~-6-9-9-11-11-11/13-13-13-11-11-9-9-----|

D|------------------------------------------|------------------------------------------|

A|------------------------------------------|------------------------------------------|

E|------------------------------------------|------------------------------------------|

E|------------------------------------------|------------------------------------------|

B|------0-0-0--0----------0-0-0--0----------|------0-0-0--0--0-----0--0--0--0--0-0-0---|

G|-6~—6—9-9-11-11/6--6~-6-9-9-11-11/6-------|-6~-6-9-9-11-11-11/13-13-13-11-11-9-9-----|

D|------------------------------------------|------------------------------------------|

A|------------------------------------------|------------------------------------------|

E|------------------------------------------|------------------------------------------|

E|------------------------------------------|------------------------------------------|

B|------0-0-0--0----------0-0-0--0----------|------0-0-0--0--0-----0--0--0--0--0-0-0---|

G|-6~—6—9-9-11-11/6--6~-6-9-9-11-11/6-------|-6~-6-9-9-11-11-11/13-13-13-11-11-9-9-----|

D|------------------------------------------|------------------------------------------|

A|------------------------------------------|------------------------------------------|

E|------------------------------------------|------------------------------------------|

[Estribillo]
F#m A
Memory, yeah
F#m A
Memory, yeah
F#m A
Memory, yeah
[Puente]
B D B D
And I swear that I don't have a gun
B D B D
No I don't have a gun - No I don't have a gun
B D B D
No I don't have a gun - No I don't have a gun
B D B D
No I don't have a gun - No I don't have a gun
[Riff]
D|-----------------------------------|

A|-----------------------------------|

F|-----------------------------------|

C|-----------------------------------|

G|-----------0---0---------2-------2-|

D|-0-0-1-2-----2---2-2-1-0---0-0-----| x4

[Estribillo]
F#m A
Memory, yeah
[Riff]
D|-----------------------------------|

A|-----------------------------------|

F|-----------------------------------|

C|-----------------------------------|

G|-----------0---0---------2-------2-|

D|-0-0-1-2-----2---2-2-1-0---0-0-----|

Este sitio usa cookies