Plateau

+ nueva lista

Nirvana

Versión
acústica
publicado por
iri
Tono
A-
A+
Deslizar
A -> La
Video
Acordes
Traducción
	 
[Riff]
E|--3-------6-------3-------6-------3-------6-------1-----|

B|----------------------------------------------------1-1-|

G|-----------------------------------------------------0--|

D|--------------------------------------------------------|

A|--------------------------------------------------------|

E|--3-------6-------3-------6-------3-------6-------1-----|

[Intro]
F# - A - Fm - A - F# - A - E
[Estrofa]
F# A F# A F# A E
Many a hand have scaled the grand old face of the plateau
F# A F# E A E F#
Some belong to strangers and some to folks you know
F# A F# A F# A E
Holy ghosts and talk show hosts are planted in the sand
F# A F# E A E F#
To beautify the foothills, shake the many hands.
[Estribillo]
F# A E F# A
Nothing on top but a bucket and a mop and an illustrated book about birds
F# A E F# A E
See a lot up there but don't be scared. Who needs action when you got words
[Puente]
F# - A - Fm - A - F# - A - E
[Riff]
E|--3-------6-------3-------6-------3-------6-------1-----|

B|----------------------------------------------------1-1-|

G|-----------------------------------------------------0--|

D|--------------------------------------------------------|

A|--------------------------------------------------------|

E|--3-------6-------3-------6-------3-------6-------1-----|

[Estrofa]
F# A F# A F# A E
Finished with the mop then you can stop and look at what you've done
F# A F# A F# E F#
Plateau's clean, no dirt to be seen and the work, it was fun
[Estribillo]
F# A E F# A
Nothing on top but a bucket and a mop and an illustrated book about birds
F# A E F# A E
See a lot up there but don't be scared. Who needs action when you got words
[Puente]
F# - A - Fm - A - F# - A - E
[Riff]
E|--3-------6-------3-------6-------3-------6-------1-----|

B|----------------------------------------------------1-1-|

G|-----------------------------------------------------0--|

D|--------------------------------------------------------|

A|--------------------------------------------------------|

E|--3-------6-------3-------6-------3-------6-------1-----|

[Estrofa]
F# A F# A F# A E
Many a hand began to scan around for the next plateau
F# A F# A E F#
Some say it was Greenland some say Mexico
F# A F# A F# A E
Others decided it was only exactly where they stood
F# A F# A E F#
Those were all just guesses, wouldn't help you if they could
[Puente]
F# - A - Fm - A - F# - A - E
[Estribillo]
F# A E F# A
Nothing on top but a bucket and a mop and an illustrated book about birds
F# A E F# A E
See a lot up there but don't be scared. Who needs action when you got words
[Riff]
E|--4----------------4---6-----------------6--|

B|---------4-------4------------6--------6----|

G|--------------------------------------------|

D|------0-------0------------0-------0--------|

A|----3-------3------------5-------5----------|

E|--4--------------------6--------------------|

E|-(0)--------------------------0-----|---------------------------------|

B|--------------0-------2---------1p0-|-----2-------0-------0-------1p0-|

G|------2-----2---2---2-------2-------|---2-------2---2---2-------2-----|

D|----2-----2-------0-------0---------|-2-------2-------3-------0-------|

A|--0-----0---------------3-----------|-------0---------------3---------|

E|------------------------------------|---------------------------------|

[Solo]
Este sitio usa cookies