Jesus Doesnt Want Me For A Sunbeam

+ nueva lista

Nirvana

Versión
estudio
publicado por
iri
Tono
A-
A+
Deslizar
A -> La
Video
Acordes
Traducción
	 
[Riff]
D C G G* G
e|-------2--0----|----------------|----------|----------|

B|-3--3--------3-|-1--1---3--1--0-|-------1--|----------|

G|---------------|----------------|-0--0-----|-0--0--0--|

D|---------------|----------------|----------|----------|

A|---------------|----------------|----------|----------|

E|---------------|----------------|----------|----------| x2

[Intro]
[D - C - G - G* - G]
[Estrofa]
D C G Cadd9 G
Jesus, don't want me for a sunbeam
D C G Cadd9 G
Sunbeams are never made like me
D C
Don't expect me to cry,
G Cadd9 G
For all the reasons you had to die
D C G Cadd9 G
Don't ever ask your love of me.
[Estribillo]
D C
Don't expect me to cry
D C
Don't expect me to lie
D C G Cadd9 G
Don't expect me to die for thee
[Estrofa]
D C G Cadd9 G
Jesus, don't want me for a sunbeam
D C G Cadd9 G
Sunbeams are never made like me.
D C
Don't expect me to cry,
G Cadd9 G
For all the reasons you had to die
D C G Cadd9 G
Don't ever ask your love of me
[Estribillo]
D C
Don't expect me to cry
D C
Don't expect me to lie
D C G Cadd9 G
Don't expect me to die for thee
[Riff]
D C G G* G
e|-------2--0----|----------------|----------|----------|

B|-3--3--------3-|-1--1---3--1--0-|-------1--|----------|

G|---------------|----------------|-0--0-----|-0--0--0--|

D|---------------|----------------|----------|----------|

A|---------------|----------------|----------|----------|

E|---------------|----------------|----------|----------| x2

[Estribillo]
D C
Don't expect me to cry,
G Cadd9 G
For all the reasons you had to die
D C G Cadd9 G
Don't ever ask your love of me
[Estrofa]
D C
Jesus, don't want me for a
G Cadd9 G
sunbeam
D C G Cadd9 G
Sunbeams are never made like me
D C
Don't expect me to cry,
G Cadd9 G
For all the reasons you had to die
D C G Cadd9 G
Don't ever ask your love of me
[Estribillo]
D C
Don't expect me to cry
D C
Don't expect me to lie
D C
Don't expect me to die
D C
Don't expect me to cry
D C
Don't expect me to lie
D C G Cadd9 G
Don't expect me to die for thee
[Riff]
D C G G* G
e|-------2--0----|----------------|----------|----------|

B|-3--3--------3-|-1--1---3--1--0-|-------1--|----------|

G|---------------|----------------|-0--0-----|-0--0--0--|

D|---------------|----------------|----------|----------|

A|---------------|----------------|----------|----------|

E|---------------|----------------|----------|----------|

D C G G* G
e|-------2--0----|----------------|----------|-----|

B|-3--3--------3-|-1--1---3--1--0-|-------1--|-0---|

G|---------------|----------------|-0--0-----|-----|

D|---------------|----------------|----------|-----|

A|---------------|----------------|----------|-----|

E|---------------|----------------|----------|-----|

Este sitio usa cookies