El leñador

Para añadir a una lista personal debes
ó

Palo Pandolfo

Versión
estudio
publicado por
iri
Tono
A-
A+
Deslizar
A -> La
Video
Acordes
	 
[Riff]
e|-----------------|-------------|-----------------|------------|

b|-----------------|-------------|-----------------|------------|

g|-----------------|-------------|-----------------|------------|

D|-----------------|-------------|-----------------|------------|

A|-------5-4-2-----|-------4-2---|-------5-4-2-----|------------|

E|-2-4-5-------5-4-|-2-4-5-----5-|-2-4-5-------5-4-|-2-1-2--4-2-|

[Estrofa]
F#m C#7 C#7 F#m
Cargando mi hacha, subiendo la montaña
F#m C#7 C#7 F#m
Madera y acero es todo lo que llevo
A E E A C#7
Caminos estrechos, pega el sol en el pecho
F#m C#7 C#7 F#m
Atada a mi espalda la leña llega a casa
[Estribillo]
D
Respira el leñador
F#m
Shiva, salud te tira el bien
D
Respira el leñador
F#m
Shiva, salud te tira el bien
F#m F#m
Y en el deleite ser
[Estrofa]
F#m C#7 C#7 F#m
Buscando madera, medianita y seca
F#m C#7 C#7 F#m
Que el monte regala, llegando a la quebrada
A E E A C#7
El viento saluda, volando un tordo cruza
F#m C#7 C#7 F#m
Pajarillo negro matá mis malos pensamientos
[Estribillo]
D
Respira el leñador
F#m
Shiva, salud te tira el bien
D
Respira el leñador
F#m
Shiva, salud te tira el bien
F#m
Y en el deleite ser
D
Respira el leñador
F#m
Shiva, salud te tira el bie
F#m F#m
Y en el deleite ser
[Post-Estribillo]
G F#m
Títere en la luz, soy un títere en la luz
D A
Títere en la luz, soy un títere en la luz
G F#m
Títere en la luz, soy un títere en la luz
D A
Títere en la luz, soy un títere en la luz
C#7
Títere en la luuuz
[Tablatura]
e|-----------------|------------|

b|-----------------|------------|

g|-----------------|------------|

D|-----------------|------------|

A|-------5-4-2-----|------------|

E|-2-4-5-------5-4-|-2-1-2--4-2-|

[Estrofa]
F#m C#7 C#7 F#m
Golpea, golpea, descarga verdadera
F#m C#7 C#7 F#m
En cada bajada el hacha dice un "mantra"
A E E A C#7
Las voces del bosque, entonan un canto
F#m C#7 C#7 F#m
Llévate la leña, déjanos las penas.
[Estribillo]
D
Respira el leñador
F#m
Shiva, salud te tira el bien
D
Respira el leñador
F#m
Shiva, salud te tira el bien
F#m
Y en el deleite ser
[Post-Estribillo]
G F#m
Títere en la luz, soy un títere en la luz
D A
Títere en la luz, soy un títere en la luz
G F#m
Títere en la luz, soy un títere en la luz
D A
Títere en la luz, soy un títere en la luz
C#7 C#7
Títere en la luuuz
[Estrofa]
F#m C#7 C#7 F#m
Fosfoiden fosfoiden, Dats yuri yuri foiden
F#m C#7 C#7 F#m
Fosfoiden fosfoiden, Dats yuri yuri foiden
A E E A C#7
Fosfoiden fosfoiden, Dats yuri yuri foiden
F#m C#7 C#7 F#m
Fosfoiden fosfoiden, Dats yuri yuri foiden
A E E A C#7
Fosfoiden fosfoiden, Dats yuri yuri foiden
F#m C#7 C#7 F#m
Fosfoiden fosfoiden, Dats yuri yuri foiden
D
Respira el leñador
F#m
el leñador.
Este sitio usa cookies