Virgen

+ nueva lista

Palo Pandolfo

Versión
estudio
publicado por
iri
Tono
A-
A+
Deslizar
A -> La
Video
Acordes
	 
[Riff]
e|-------|-------|-----------|-----------|-----------|-------|

b|-------|-------|-----------|-----------|-----------|-------|

g|---2-0-|-------|-----------|-----------|-----------|-------|

D|-2-----|-------|-----------|-----------|-----------|-------|

A|-------|-0-0-0-|-0-2-3-3-3-|-3-5-7-7-7-|-7-5-3-3-3-|-5-3-5-|

E|-------|-------|-----------|-----------|-----------|-------|

e|-------|-----------|-----------|-----------|-------|

b|-------|-----------|-----------|-----------|-------|

g|-------|-----------|-----------|-----------|-------|

D|-------|-----------|-----------|-----------|-------|

A|-0-0-0-|-0-2-3-3-3-|-3-5-7-7-7-|-7-5-3-3-3-|-5-3-5-|

E|-------|-----------|-----------|-----------|-------|

e|-------|-----------|---------------|-------------|---------|

b|-------|-----------|---------------|-------------|---------|

g|-------|-----------|---------------|-------------|---------|

D|-------|-----------|---------------|-------------|---------|

A|-5-5-5-|-5-7-8-8-8-|-8-10-12-12-12-|-12-10-8-8-8-|-10-8-10-|

E|-------|-----------|---------------|-------------|---------|

e|-------|-----------|---------------|-------------|---------|

b|-------|-----------|---------------|-------------|---------|

g|-------|-----------|---------------|-------------|---------|

D|-------|-----------|---------------|-------------|---------|

A|-5-5-5-|-5-7-8-8-8-|-8-10-12-12-12-|-12-10-8-8-8-|-10-8-10-|

E|-------|-----------|---------------|-------------|---------|

[Estrofa]
Am C
En ese pais hubo una mujer
Em C
que nunca quiso hablar, pero que se hizo comprender.
Am C
Loca muchacha buscaba en el vino,
Em C Dm
lo que su padre nego y madre no pudo dar.
F Am F Dm F
Un poco de libertad, para no tener que matar, por la dignidad.
[Estrofa]
Am C Em
En el vino esta la verdad, pero la liberación
C
esta en otro lugar
Am C Em
y asi en la lucha, su vida sumergio y se hizo sacrificar
C Dm
con toda su generación.
F Am F Dm
Y nos hace falta hoy, con un consejo para seguir
F
creando un mundo mejor.
[Riff]
e|-------|-------|-----------|-----------|-----------|-------|

b|-------|-------|-----------|-----------|-----------|-------|

g|---2-0-|-------|-----------|-----------|-----------|-------|

D|-2-----|-------|-----------|-----------|-----------|-------|

A|-------|-0-0-0-|-0-2-3-3-3-|-3-5-7-7-7-|-7-5-3-3-3-|-5-3-5-|

E|-------|-------|-----------|-----------|-----------|-------|

e|-------|-----------|-----------|-----------|-------|

b|-------|-----------|-----------|-----------|-------|

g|-------|-----------|-----------|-----------|-------|

D|-------|-----------|-----------|-----------|-------|

A|-0-0-0-|-0-2-3-3-3-|-3-5-7-7-7-|-7-5-3-3-3-|-5-3-5-|

E|-------|-----------|-----------|-----------|-------|

e|-------|-----------|---------------|-------------|---------|

b|-------|-----------|---------------|-------------|---------|

g|-------|-----------|---------------|-------------|---------|

D|-------|-----------|---------------|-------------|---------|

A|-5-5-5-|-5-7-8-8-8-|-8-10-12-12-12-|-12-10-8-8-8-|-10-8-10-|

E|-------|-----------|---------------|-------------|---------|

e|-------|-----------|---------------|-------------|---------|

b|-------|-----------|---------------|-------------|---------|

g|-------|-----------|---------------|-------------|---------|

D|-------|-----------|---------------|-------------|---------|

A|-5-5-5-|-5-7-8-8-8-|-8-10-12-12-12-|-12-10-8-8-8-|-10-8-10-|

E|-------|-----------|---------------|-------------|---------|

[Estrofa]
Am C
En río revuelto se puede pescar
Em C
pero mi amigo atención, que los botes pueden volcar
Am C
tire don más, no se puede parar
Em C
si no aquella mujer en su infierno se va a quedar.
F Am F Dm
Y nos hace falta hoy, con un consejo para seguir
F
creando un mundo mejor.
[Puente]
Am F
Tire Don mas, pues nos hace falta,
Dm F
no se puede parar y nos hace falta
Am F
tire Doña mas, pues nos hace falta
Am F
no se puede parar y nos hace falta
Am F
Tire Don mas, pues nos hace falta,
Dm F
no se puede parar y nos hace falta
Am F
tire Doña mas, pues nos hace falta
Am F
no se puede parar y nos hace falta
[Puente]
F# - F - E - D# - E F

F# - F - E - D# - E F

F# - F

[Estrofa]
Am C
En ese pais hubo una mujer
Em C Am
que nunca quiso hablar, pero que se hizo comprender.
[Tablatura]
Am

e|----------|-----------|----|---|

b|----------|-----------|----|-5-|

g|----------|-----------|----|-5-|

D|----------|-7-9-10-12-|----|-7-|

A|-5-8-10-8-|-----------|-12-|-7-|

E|----------|-----------|----|-5-|

Este sitio usa cookies