Todos somos el enviado

Para añadir a una lista personal debes
ó

Palo Pandolfo

Versión
estudio
publicado por
iri
Tono
A-
A+
Deslizar
A -> La
Video
Acordes
	 
[Intro]
G Am G Cm G Am7
e|----------------------|----------0------0-|-------------------|---------3------|

b|------0----------0----|------0---0------0-|---------4-------0-|-------1--1--~0-|

g|-----0-0--------0-0---|------0---0-0----0-|-------3-3-------0-|-----0----0--~0-|

D|---------0----------0-|-2--2---2----------|-----1---1-----0---|---2---------~0-|

A|----------------------|-0-----------------|-2/3---------------|-0-----------~0-|

E|-2h3--------2h3-------|---------------3---|------------3------|-------------~3-|

Cm G G G
e|-------------------|----------------------|- ------|

b|---------4-------0-|-------0---------0----| -------|

g|-------3-3-------0-|-------0---------0----| -------|

D|-----1---1-----0---|-----0-- ------0------| -------|

A|-2/3---------------|-------------~--------| -------|

E|------------3------|-2h3-------2h3--------|-3h4h5-|

[Intro]
G G Am7 G Cm7/#9 G Am7 G Cm7/#9 G G


A Cm - Am Cm

[Estrofa]
Am Cm7/#9 Am - Cm7/#9
Con una misión en el alma nacemos todos
Am Cm7/#9 Am - Cm7/#9
Pa´ buscar luz en el alma todos nacemos
[Puente]
Am Cm7/#9
Canta la tierra verde
Am Cm7/#9
Canta madre de la mente
Am Cm7/#9
Canta el espíritu de la tierra
Am Cm7/#9
Hecho árbol, hecho gente.
[Estrofa]
Am Cm7/#9 Am - Cm7/#9
Con una misión en el alma nacemos todos
Am Cm7/#9 Am - Cm7/#9
Pa' buscar luz en el alma todos nacemos
G
Por eso canta
[Puente]
Am G
Canta la tierra verde
Cm7/#9 G
madre de la mente.
Am G
Canta la tierra verde
Cm7/#9 G
madre de la mente.
[Puente]
[Am - Cm7/#9]x2
[Estrofa]
Am Cm7/#9 Am - Cm7/#9
Con una misión en el alma nacemos todos (lara lala lara lala)
Am Cm7/#9 Am - Cm7/#9
Pa´ buscar luz en la tierra todos nacemos (lara lala lara lalaaaaa)
Am Cm7/#9 Am - Cm7/#9
Am Cm7/#9 Am - Cm7/#9
eh ey
Am Cm7/#9 Am - Cm7/#9
Con una misión en la tierra nacemos todos
Am Cm7/#9 Am - Cm7/#9
Pa´ buscar luz en la tierra todos nacemos (lara lala lara lalaaaaa)
G
Por eso canta
[Estribillo]
Am G
Canta la tierra verde
Cm7/#9 G
madre de la mente
Am G
Canta la tierra verde
Cm7/#9 G
madre de la mente
Am G
Canta la tierra verde
Cm7/#9 G
madre de la mente
Am G
Canta la tierra verde
Cm7/#9 Gm - Am - Bbm - Cm G
madre eeeeeeeeeeeeeeeeeeh de la mente
[Estribillo]
Am Cm G
Alas en la cabeza, soltarse en la oscuridad (todos somos el enviado)
Am G
Canta la tierra verde
Cm7/9 G
madre de la mente.
Am G/B
A soltarse de la ambición y el miedo
Cm7/9
todos somos el enviado
Am G Cm7/9
Canta la tierra verde, madre de la mente.
Am G Cm7/9
soltarse y abrazar nuestra misión todos somos el enviado
Am G
Canta la tierra verde
Cm7/9 G
madre de la mente.
Am G Cm7/9
con una misión el alma de la tierra nacemos todos somos el enviado
Am G
Canta la tierra verde
Cm7/9 G
madre de la mente.
Am G/B Cm7/9
Alas en la cabeza, soltarse en la oscuridad, todos somos el enviado
Am G Cm7/9 G
Caaaaaaanta la tierra, todos somos el enviado
Am G
Canta la tierra verde
Cm7/9 G
madre de la mente.
Am G
Canta la tierra verde
Cm7/9 D7/9/A - Eb7/9/Bb F79/C G
madre eeeeeeeeeeeeeeeeeeh de la mente, si
[Tablatura]
G
e|---------3-|

b|---------3-|

g|-------2-0-|

D|---1-3-----|

A|-3---------|

E|---------3-|

Este sitio usa cookies