La Misma Suerte

Para añadir a una lista personal debes
ó

Palo Pandolfo

Versión
estudio
publicado por
rafah
Tono
A-
A+
Deslizar
A -> La
Video
Acordes
	 
[Riff]
Riff 1
e|----------------------------------------------|

b|----------------------------------------------|

g|--------------------6--9--9--6----6-----------|

D|-------------6--9----------------9----9-------|

A|------7--9------------------------------------|

E|--0-------------------------------------------|

Riff 2
e|-----------------------------------------7------|

b|------------------------9--9--7------9--------9-|

g|-----------------6--------------9---------------|

D|----------6--9----------------------------------|x2

A|----7--9----------------------------------------|

E|-0----------------------------------------------|

[Estrofa]
C#m B A
Yo se muy bien pelearlo no tiene sentido
F#m [Riff 1]
si toda esta emoción pega la vuelta
C#m B A
Y cuando tu palabra hace sangrar mi oído
F#m [Riff 2]
le pido a María una respuesta
[Puente]
F#m C#m
Venerable, madre abre
A B [Riff]
Su alma al amor
[Riff]
e|----------------------------------------------|

b|----------------------------------------------|

g|--------------------6--9--9--6----6-----------|

D|-------------6--9----------------9----9-------|

A|------7--9------------------------------------|

E|--0-------------------------------------------|

e|-----------------------------------------7------|

b|------------------------9--9--7------9--------9-|

g|-----------------6--------------9---------------|

D|----------6--9----------------------------------|

A|----7--9----------------------------------------|

E|-0----------------------------------------------|

[Estrofa]
C#m B A
Toda la mañana espero tu llamado
F#m [Riff 1]
como un hielo que se prende fuego
C#m B A
Un poco alucino, un poco estoy parado
F#m [Riff 2]
pero ese anillo no es un juego
[Puente]
F#m C#m
Dulce madre, dame el aire
A B Riff
para respirar
[Estribillo]
E A B
Y si vienes por aquí
A E A B A
estaremos frente a frente
E A B
y tus manos tomaré
A E A B A
al besarnos de repente
F#m G#m A
y pasado y porvenir
G#m F#m G#m A B
se reducen al presente
E A B
sufrir o ser feliz
A E A B A
buscarás la misma suerte
[Riff]
Riff 1
e|----------------------------------------------|

b|----------------------------------------------|

g|--------------------6--9--9--6----6-----------|

D|-------------6--9----------------9----9-------|

A|------7--9------------------------------------|

E|--0-------------------------------------------|

Riff 2
e|-----------------------------------------7------|

b|------------------------9--9--7------9--------9-|

g|-----------------6--------------9---------------|

D|----------6--9----------------------------------|

A|----7--9----------------------------------------|

E|-0----------------------------------------------|

[Estrofa]
C#m B A
olala la vida es un laberinto
F#m [Riff 1]
y siempre se sale por arriba
C#m B A
o sino tirarse desde un piso quinto
F#m [Riff 2]
finalmente sangren en las heridas
[Puente]
E F#m G#m A
cinco cuatro tres dos uno cero
[Estribillo]
E A B
Y si vienes por aquí
A E A B A
estaremos frente a frente
E A B
y tus manos tomaré
A E A B A
al besarnos de repente
F#m G#m A
y pasado y porvenir
G#m F#m G#m A B
se reducen al presente
E A B
sufrir o ser feliz
A E A B A
dos caras la misma suerte
[Estribillo]
E A B A
Y si vienes por aquí
E A B A
Y si vienes por aquí
E A B A
Y si vienes por aquí
E A B A
Y si vienes por aquí
[Riff]
[Riff]
e|----------------------------------------------|

b|----------------------------------------------|

g|--------------------6--9--9--6----6-----------|

D|-------------6--9----------------9----9-------|

A|------7--9------------------------------------|

E|--0-------------------------------------------|

e|-----------------------------------------7------|

b|------------------------9--9--7------9--------9-|

g|-----------------6--------------9---------------|

D|----------6--9----------------------------------|

A|----7--9----------------------------------------|

E|-0----------------------------------------------|

Este sitio usa cookies